Oops, an error
Loading. Please wait.

Hoy Quiero Estar Contigo tab

by Varana
62 views 3 this week
no commentswrite comment
1 2 3 4 5
3 more votes to show rating
add to favorites
×
Save as Personal and add changes to this tab that will be seen only by you. Learn more ›
×
You can save this tab as Personal to edit and correct it or add notes. All changes will be seen only by you. Learn more »
launch autoscroll
font size
0
reset
how to read this tab
guitar tuner
edit
Autoscroll
slow
fast
+/-
esc
set tempo
stop
ESTO VA AL PRINCIPIO EN LA ROLA  TODA LA PRIMERA PARTE:

ESTO SE HACE 15 VECES ANTES DE EMPEZAR A CANTAR Y LO SIGUES
HACIENDO MIENTRAS VAS CANTANDO EN TOTAL SON COMO UNAS
50 VECES ANTES DE EMPEZAR EL PRECORO

1|----------12-----------12-----------12----------12-|
2|-9-10--12-----9-10--12-----9-10--12-----9-10--12---|
3|---------------------------------------------------|
4|---------------------------------------------------|
5|---------------------------------------------------|
6|---------------------------------------------------|

1|----------12-----------12-----------12----------12-|
2|-9-10--12-----9-10--12-----9-10--12-----9-10--12---|
3|---------------------------------------------------|
4|---------------------------------------------------|
5|---------------------------------------------------|
6|---------------------------------------------------|

Si tan solo supieras cuanto me haces falta.
Si tan solo un segundo estuvieras aquí mi amor.
Si tan solo una vida bastara para amarte.
En cada suspiro estarías

 EN LA PARTE DONDE DICE: mi amor.
VA ESTO

1|----14-14-14-14-14-14---12---16-16--14-12---------|
2|--------------------------------------------------|
3|--------------------------------------------------|
4|--------------------------------------------------|
5|--------------------------------------------------|
6|--------------------------------------------------|

PRECORO:

  Porque tal vez te haría subir hasta el cielo
1|-- -------14-12-------------14-12-----------------|
2|--------------------------------------------------|
3|--------------------------------------------------|
4|--------------------------------------------------|
5|--------------------------------------------------|
6|--------------------------------------------------|

1|----------12-----------12-----------12----------12-|
2|-9-10--12-----9-10--12-----9-10--12-----9-10--12---|
3|---------------------------------------------------|
4|---------------------------------------------------|
5|---------------------------------------------------|
6|---------------------------------------------------|

  porque tal vez la vida no vale lo
1|-- -------14-12------------14-12------------------|
2|--------------------------------------------------|
3|--------------------------------------------------|
4|--------------------------------------------------|
5|--------------------------------------------------|
6|--------------------------------------------------|
CUANDO SE ESMPIEZA A CANTAR MISMO SIN TI VA ESTO
       mismo sin ti.
1|----14-14-14-14-14-14---12---16-16--14-12---------|
2|--------------------------------------------------|
3|--------------------------------------------------|
4|--------------------------------------------------|
5|--------------------------------------------------|
6|--------------------------------------------------|

CORO:

LA            MI           RE
Hoy quiero estar contigo amor
         MI
porque todo sería mejor.
LA            MI           RE
Hoy quiero estar contigo amor
            MI
sin ti no hay rumbo ni dirección.
LA            MI           RE
Hoy quiero estar contigo amor
            MI
si tú no estás solo hay dolor.
LA            MI           RE
Hoy quiero estar contigo amor
         MI           RE
porque todo sería mejor.


MI                                LA
Extrañando momentos recordando tu risa.
MI                                 LA
Recorriendo tu cuerpo y tu fragilidad amor.
MI                                    LA
Aún recuerdo tus ojos y el olor de tu piel.
MI                               RE
El aire se me acaba cuendo no estás aquí

LA                                      MI
Porque tal vez te haría subir hasta el cielo
RE                                 MI
porque tal vez la vida no vale lo mismo sin ti.


LA            MI           RE
Hoy quiero estar contigo amor
         MI
porque todo sería mejor.
LA            MI           RE
Hoy quiero estar contigo amor
            MI
sin ti no hay rumbo ni dirección.
LA            MI           RE
Hoy quiero estar contigo amor
            MI
si tú no estás solo hay dolor.
LA            MI           RE
Hoy quiero estar contigo amor
         MI           RE
porque todo sería mejor.


LA            MI           RE
Hoy quiero estar contigo amor
            MI
si tú no estás solo hay dolor.
LA            MI           RE
Hoy quiero estar contigo amor
         MI           RE
porque todo sería mejor.


ESPERO LES GUSTE Y PUEDEN TOCARLO A  DOS GUITARRAS
UNO TOCANDO ESTOS ACORDES Y OTRO TOCANDO LA TABLATURA
PUSE SOBRE DE INTRO CREO QUE ESO SE TOCA TODA LA
CANCION EN EL CORO Y LAS ESTROFAS EN EL PRECORO SIEMPRE CAMBIA


hugo_skato@

            
            
Suggest correction
Creating personal tab
Creating personal tab
You can edit any tab online and save it as your Personal.

You can edit, replace or remove any tab part or add personal notes – all changes will be seen only by you.

Personal tabs can be accessed anytime from any device, even offline.
Learn more »
Give kudos to tab author, rate the tab!
1 2 3 4 5
comments
print report bad tab
guest
Wanna post a correction for this tab? Suggest correction