Oops, an error
Loading. Please wait.

So Sad So Sad Tab

295 views 33 this week
1 commentread comment
1 2 3 4 5
1 last vote to show rating
add to favorites
launch autoscroll
font size
0
reset
how to read this tab
guitar tuner
Autoscroll
slow
fast
+/-
esc
set tempo
stop
Help us to improve Ultimate-Guitar.com Take our survey!
×
Author
Difficulty
intermediate
About this tab version
Explains some of the voicings and riffs alongside the main progression. Was this info helpful? Yes No
[verse]
           
e|-----------------|-7----7-5------|7-7--7-7-------|----------------------------|
B|--7-5--7-5-------|-7----7-7------|7-7--7-7-------|12----9----------9----------|
G|--x-x--x-5-------|-8----8-6------|8-8--8-8-------|9-----9--11--9h11-11--------|
D|--6-6--6-6-------|-9----9-4------|9-9--9-9-------|11----11-11--11-------------|
A|--7-7--7-7-------|-7----7--------|---------------|12----12-12--12-------------|
E|-----------------|---------------|---------------|----------------------------|

x3 (once for intro)


[Chorus]
    Emaj              Ab+             Dbmin            E7
e|------------------|----------------|----------------|-------------------------|
B|--5-5-5-5-5-5-5-5-|5-5-5-5-5-5-5-5-|5-5-5-5-5-5-5-5-|5-5-5-5-5-5-5-5----------|
G|--x-x-x-x-x-x-x-x-|5-5-5-5-5-5-5-5-|6-6-6-6-6-6-6-6-|7-7-7-7-7-7-7-7----------|
D|--6-6-6-6-6-6-6-6-|6-6-6-6-6-6-6-6-|6-6-6-6-6-6-6-6-|6-6-6-6-6-6-6-6----------|
A|--7-7-7-7-7-7-7-7-|7-7-7-7-7-7-7-7-|7-7-7-7-7-7-7-7-|7-7-7-7-7-7-7-7----------|
E|------------------|----------------|----------------|-------------------------|
"I could never walk away..."
e|--5--------5--------5--------------|
B|--7--------5--------5--------------|
G|--7-(x16)--6-(x8)---6--(x8)--------|
D|--7--------7--------5--------------|
A|--5--------7--------7--------------|
E|-----------5--------5--------------|
This progression x2

"I could never make you stay.."

e|---7-----------7--------------|
B|---7-----------7--------------|
G|---8---(x8)----8----(x8)------|
D|---9-----------7--------------|
A|---9-----------9--------------|
E|---7-----------7--------------|

[post chorus]               while rhythm plays this, lead has this riff:
e|-----------5--5-5-|--------4------------------|-----12-12p11-9-----16-16p14-12--|
B|---5--5-5--5--5-5-|--------4------------------|---------------------------------|
G|---x--x-x--6--6-6-|--(x3)--4---(x16)----------|---------------------------------|
D|---6--6-6--7--7-7-|--------6------------------|---------------------------------|
A|---7--7-7--7--7-7-|--------6------------------|---------------------------------|
E|-----------5--5-5-|--------4------------------|---------------------------------|

[verse lead in]

e|------------------------------|
B|------------------------------|
G|------------------------------|
D|---4----4----4----4----4------|
A|---4----4----4----4----4------|
E|-0-2--0-2--0-2--0-2--0-2------|

[verse]
e|-----------------|-7----7-5------|7-7--7-7-------|----------------------------|
B|--7-5--7-5-------|-7----7-7------|7-7--7-7-------|12----9----------9----------|
G|--x-x--x-5-------|-8----8-6------|8-8--8-8-------|9-----9--11--9h11-11--------|
D|--6-6--6-6-------|-9----9-4------|9-9--9-9-------|11----11-11--11-------------|
A|--7-7--7-7-------|-7----7--------|---------------|12----12-12--12-------------|
E|-----------------|---------------|---------------|----------------------------|
(x2)

[Chorus] Gradually slows down along this progression
    Emaj              Ab+             Dbmin            E7
e|------------------|----------------|----------------|-------------------------|
B|--5-5-5-5-5-5-5-5-|5-5-5-5-5-5-5-5-|5-5-5-5-5-5-5-5-|5-5-5-5-5-5-5-5----------|
G|--x-x-x-x-x-x-x-x-|5-5-5-5-5-5-5-5-|6-6-6-6-6-6-6-6-|7-7-7-7-7-7-7-7----------|
D|--6-6-6-6-6-6-6-6-|6-6-6-6-6-6-6-6-|6-6-6-6-6-6-6-6-|6-6-6-6-6-6-6-6----------|
A|--7-7-7-7-7-7-7-7-|7-7-7-7-7-7-7-7-|7-7-7-7-7-7-7-7-|7-7-7-7-7-7-7-7----------|
E|------------------|----------------|----------------|-------------------------|
"I could never walk away..."
e|--5--------5--------5--------------|
B|--7--------5--------5--------------|
G|--7-(lr)---6-(lr)---6--(lr)--------|
D|--7--------7--------5--------------|
A|--5--------7--------7--------------|
E|-----------5--------5--------------|
This progression x2

"I could never make you stay.."

e|---7-----------7--------------|
B|---7-----------7--------------|
G|---8---(lr)----8----(lr)------|
D|---9-----------7--------------|
A|---9-----------9--------------|
E|---7-----------7--------------|

[post-chorus/outro]
e|-----------5--5-5-|--------4------------------|
B|---5--5-5--5--5-5-|--------4------------------|
G|---x--x-x--6--6-6-|--(x3)--4---(x16)----------|
D|---6--6-6--7--7-7-|--------6------------------|
A|---7--7-7--7--7-7-|--------6------------------|
E|-----------5--5-5-|--------4------------------|

e|------------------------------|
B|------------------------------|
G|------------------------------|
D|---4----4----4----4----4------|
A|---4----4----4----4----4------|
E|-0-2--0-2--0-2--0-2--0-2------|

e|-----------5--5-5-|--------4------------------|
B|---5--5-5--5--5-5-|--------4------------------|
G|---x--x-x--6--6-6-|--(x3)--4---(x16)----------|
D|---6--6-6--7--7-7-|--------6------------------|
A|---7--7-7--7--7-7-|--------6------------------|
E|-----------5--5-5-|--------4------------------|

e|-----------------------|-----------------------------|---|
B|-----------------------|-----------------------------|---|
G|-----------------------|-----------------------------|---|
D|---4----4----4----4----|4----4----4----4----4----4---|-4-|
A|---4----4----4----4----|4----4----4----4----4----4---|-4-|
E|-0-2--0-2--0-2--0-2--0-|2--0-2--0-2--0-2--0-2--0-2--0|-2-|


************************************

| x   Dead note
| h   Hammer-on
| p   Pull-off

************************************
Suggest correction
Give kudos to tab author, rate the tab!
1 2 3 4 5
comments
print report bad tab
1 comment total.
0 reply
daleksbutthole 109 Oct 19, 2016 11:49 PM

this song is probably easiest with a capo on the 4th fret; jsyk

guest
You may want to rate the tab now too:
select rating
Wanna post a correction for this tab? Suggest correction