Oops, an error
Loading. Please wait.

Buoni O Cattivi bass

version 1
version 1

Whole song

Interactive

476 views 9 this week
no commentswrite comment
1 2 3 4 5
3 more votes to show rating
add to favorites
×
Save as Personal and add changes to this tab that will be seen only by you. Learn more ›
×
You can save this tab as Personal to edit and correct it or add notes. All changes will be seen only by you. Learn more »
launch autoscroll
font size
0
reset
guitar tuner
edit
Autoscroll
slow
fast
+/-
esc
set tempo
stop
Author
Difficulty
Title:                  Buoni o cattivi
Author:                 Vasco Rossi (bass:Tony Franklin)
Tuning:                 standard
Tabbed by:              Diego Damo


This is the bass line for the song "Buoni o cattivi",by Vasco Rossi,title
track from the homonymous album of 2004.
Bass is played by Tony Franklin

I know the tab misses some flourish and chromaticism,for has been tabbed
as i've been able "at ear". There is no tab on the internet nor videolesson on
youtube. If someone would like to improve it,feel free to do it. 

Suggestions or complains: damo.diego_AT_gmail.com




INTRO:
(bass starts at 00:09)
G|---------------------------------------------------------------------------|
D|/5-3-3-3-3-3s--5-5-5-5-3---------------------------------------------------|
A|------------------------5-3------------------------------------------------|
E|---------------------------------------------------------------------------|

MAIN RIFF:
(00:17 to 00:32)
G|---------------------------------------------------------------------------|
D|5-5-5-5-5-5-2-0--5-5-5-5-5-2-0---------------------------------------------|
A|-------------------------------3-3-3-3-3-3-0-3--3-3-3-3-3-3-0-3------------|
E|---------------------------------------------------------------------------|

BRIDGE:
(00:32 to 00:47)
G|---------------------------------------------------------------------------|
D|2-2-2-2-2-2-2-2-3-3-3-3-3-3-3-3-------------------------2-5-2-0------------|
A|--------------------------------3-3-3-3-3-3-3-3-3-3-3-3--------------------|
E|---------------------------------------------------------------------------|

G|---------------------------------------------------------------------------|
D|2-2-2-2-2-2-2-2-3-3-3-3-3-3-3-3--------------------------------------------|
A|--------------------------------3-3-3-3-3-3-3-3/15-15-15-15-15-15-15\------|(fret 15)
E|---------------------------------------------------------------------------|

CHORUS:
(00:47 to 01:03)
G|---------------------------------------------------------------------------|
D|---------------------------------------------------------------------------|
A|0s---3-3-3-3-3-3-3-3-----------------0-0-0-0-0-0-0-0-----------------------|
E|--1s-----------------3-3-3-3-3-3-3-3-----------------1-1-1-1-1-1-1-1-------|

G|---------------------------------------------------------------------------|
D|---------------------------------------------------------------------------|
A|3-3-3-3-3-3-3-3------------------------------------------------------------|
E|----------------3-3-3-3-3-3-3-3--------------------------------------------|

END OF CHORUS AND MAIN RIFF REPRISE:
(01:03 to 01:10)
G|---------------------------------------------------------------------------|
D|---------------------------------------------------------------------------|
A|----------------2-2-2-2-2-2-2-2-3-3-3-3-3-3-3-3----------------------------|
E|3-3-3-3-3-3-3-3--------------------------------1-1-1-1-1-1-1-1-------------|



From 01:11 to 01:56 play MAIN RIFF again + 1 BRIDGE + 1 CHORUS line with
a slight difference: Instead closing the CHORUS with 8 "G" on the "E" string,
keep playing 16 "C" on the "A" string.
G|---------------------------------|
D|---------------------------------|
A|3-3-3-3-3-3-3-3---3-3-3-3-3-3-3-3|
E|---------------------------------|


VARIATION: (or 2nd BRIDGE,if u like)
(from 01:57 to 02:12)
G|---------------------------------------------------------------------------|
D|----------------------------------------------------1----------------------|
A|----------------1-1-3-3-5-5-3-3----3-3-3-3-3-3--3-3----1-------------------|
E|4-4-6-6-8-8-6-6------------------------------------------------------------|


G|---------------------------------------------------------------------------|
D|---------------------------------------------------------------------------|
A|---------------------------------3----1-3-1-3-1-3--------------------------|
E|4-4-6-6-8-8-6-6--1-1-3-3-5-5-1-1-------------------------------------------|


GUITAR SOLO:
(02:13 to 02:28)
G|---------------------------------------------------------------------------|
D|---------------------------------------------------------------------------|
A|--------------------------------3-3-3-3-3-3-3-3----------------------------|
E|3-3-3-3-3-3-3-3-1-1-1-1-1-1-1-1----------------3-3-3-3-3-3-3-3-------------|

G|---------------------------------------------------------------------------|
D|--------------------------------3-3-3-3-3-3-3-3----------------------------|
A|----------------3-3-3-3-3-3-3-3-----------------3--5--3--------------------|
E|3-3-3-3-3-3-3-3------------------------------------------------------------|

From 02:28 to 02:58 play CHORUS 2 times,then play the FINALE 3 times..and 
you're done.

FINALE:
(02:58 to END)
G|---------------------------------------------------------------------------|
D|---------------------------------------------------------------------------|
A|----------------2-2-2-2-2-2-2-2-3-3-3-3-3-3-3-3----------------------------|
E|3-3-3-3-3-3-3-3---------------------------------3-3-3-3-3-3-3-3----3s------|



            
            
Suggest correction
Creating personal tab
Creating personal tab
You can edit any tab online and save it as your Personal.

You can edit, replace or remove any tab part or add personal notes – all changes will be seen only by you.

Personal tabs can be accessed anytime from any device, even offline.
Learn more »
Give kudos to tab author, rate the tab!
1 2 3 4 5
comments
print report bad tab
guest
You may want to rate the tab now too:
select rating
Wanna post a correction for this tab? Suggest correction