Oops, an error
Loading. Please wait.

Canzone Chords

version 1
version 1

Whole song

Interactive

13,445 views 27 this week
no commentswrite comment
1 2 3 4 5
excellent!
x 1
add to favorites
launch autoscroll
font size
0
reset
transpose
0
reset
simplify chords
- display chords -
guitar tuner
Tab Pro tools
  • play this tab
  • loop segment
  • change instrument
  • show fretboard
  • metronome
Autoscroll
slow
fast
+/-
esc
set tempo
stop
Contributor
Vasco Rossi
Canzone
Submitted by: paramore_fans@yahoo.com

Key: B, G#

Tuning: Standard EADGBe

Chords used:
B -     x24442
F# -    244322
G#m -   466444
E -     022100
Em -    022000
F#/Bb - x143xx
Ebm -   x68876
B7 -    x21202
Bbm -   x13321
Eb -    x68886
Cm -    x35543
F -     133211
C# -    x46664
G# -    466574
A -     x02220
Fm -    133111
Eb/G -  365xxx
G#/C -  x365xx


Intro: B--F#/Bb-Ebm-G#m--B7--E--Em

Guitar 2:
      B       F#/Bb    Ebm    G#m         B7         E       Em
e|----------|-------|------|------2-|-4--2--0----|--------|----0-|
B|-0--4-2-0-|-2-----|-4--2-|-0--4---|----------4-|-0--0-2-|-3----|
G|----------|-------|------|--------|------------|--------|------|
D|----------|-------|------|--------|------------|--------|------|
A|----------|-------|------|--------|------------|--------|------|
E|----------|-------|------|--------|------------|--------|------|


Verse 1:
B              F#      E
E nell'aria an cora il tuo
F#/Bb B          F#/Bb Ebm     G#m      
pro   fumo dolce caldo morbi do
     B7
come questa sera
E          E7
  mentre tu... mentre tu
B                     F#         E  F#/Bb  Bbm Eb  
non ci sei piu ci sei piu ci sei piu


Guitar 2:
   Bbm   Eb
e|----1-|---
B|-2----|-4-
G|------|---
D|------|---
A|------|---
E|------|---

         Fm   Eb/G Cm            F
e questa sera nel  letto mette ro
                    Bbm                Eb
qualche coperta in  piu' perche' se no'
                          G#
seno' avro' freddo senz'a verti sempre
       G#7                 Bbm Eb
senz'a verti sempre addosso
        Fm     Eb/G
e sara' triste lo  so'
Cm                   F
ma la tristezza pero' si puo' racchiudere
Bbm           A
dentro una canzone
G#         Eb F#/Bb
  che cantero


Verse 2: Do Guitar 2 for Intro
B--F#/Bb-Ebm G#m
         E   ogni 
      B7 
volta che avro' voglia
E             Em
  di parlarti di tenerti
B             F#    E  F#/Bb            
  di toccarti di sentirti an 
B          F#/Bb-Ebm-G#m--B7
cora mia e' 
E                Em  B    F# E F#/Bb
  stato splendido  a marti 


Guitar Solo:
   Bbm     Eb   Fm  Eb/G   Cm         F
e|----1-|------|---|----|------|-3-1---------|
G|-2----|-4--2-|-1-|----|-1--4-|------4-2--1-|
D|------|------|---|-3--|------|-------------|
G|------|------|---|----|------|-------------|
A|------|------|---|----|------|-------------|
E|------|------|---|----|------|-------------|

   Bbm     Eb   Fm  Eb/G  G#      G#7
e|----1-|------|---|----|---|-2-2-1-1-----|
G|-2----|-4--2-|-1-|----|-1-|---------2-2-|
D|------|------|---|-3--|---|-------------|
G|------|------|---|----|---|-------------|
A|------|------|---|----|---|-------------|
E|------|------|---|----|---|-------------|

   Bbm     Eb   Fm  Eb/G   Cm         F
e|----1-|------|---|----|------|-3-1---------|
G|-2----|-4--2-|-1-|----|-1--4-|------4-2--1-|
D|------|------|---|-3--|------|-------------|
G|------|------|---|----|------|-------------|
A|------|------|---|----|------|-------------|
E|------|------|---|----|------|-------------|

   Bbm     Eb   Fm  Eb/G  G#      G#7
e|----1-|------|---|----|---|-2-2-1-1-----|
G|-2----|-4--2-|-1-|----|-1-|---------2-2-|
D|------|------|---|-3--|---|-------------|
G|------|------|---|----|---|-------------|
A|------|------|---|----|---|-------------|
E|------|------|---|----|---|-------------|


Bbm--Eb-Fm-Eb/G-Cm--F--  
G#         G#7                 Bbm--Eb-Fm-Eb/G-Cm--F--
  e senz'a verti sempre addosso
Bbm           A   G# Eb  C# Eb
dentro una canzone 


Chorus:
G# Bbm            Cm
      e quando un giorno t'incontrero
Fm Bbm                  Eb
      magari per la strada
G#                     G#7
  magari proprio sotto casa tua e
C#   Eb
  ma guarda il caso pero
Cm Fm
     guarda il destino
 Bbm  G#/C C#   Eb C#  Cm Bbm
splen-di---do e crudele
           Cm      G#--Eb-F#/Bb
crudele e splendido 


Interlude: x2
      B       F#/Bb    Ebm    G#m         B7         E       Em
e|----------|-------|------|------2-|-4--2--0----|--------|----0-|
B|-0--4-2-0-|-2-----|-4--2-|-0--4---|----------4-|-0--0-2-|-3----|
G|----------|-------|------|--------|------------|--------|------|
D|----------|-------|------|--------|------------|--------|------|
A|----------|-------|------|--------|------------|--------|------|
E|----------|-------|------|--------|------------|--------|------|

       B       F#    E  F#/Bb
e|----------|------|---|-----|
B|-0--4-2-0-|-2--0-|---|-----|
G|----------|------|-3-|-1---|
D|----------|------|---|-----|
A|----------|------|---|-----|
E|----------|------|---|-----|


Outro:
Bbm Eb            Fm  Eb/G Cm     F
      E intanto i giorni   passano
                 Bbm    Eb
ed i ricordi sbiadiscono
        Fm  Eb/G G#    G#7
e le abitudini---cambiano 


Bbm--Eb-Fm-Eb/G-Cm--F--Bbm--A


eh e' stato splendido
G#
  e' stato splendido
Eb          C#
  e' stato splendido
G#
  e' stato splendido
Eb          C#      G#(hold)
  e' stato splendido
comments
We did not receive enough feedback on this tab! Please rate:
print report bad tab
1 2 3 4 5
I want to post or [tab]
guest
You may want to rate the tab now too:
select rating
Please do not post tabs as comments. Select "correction" instead!