Oops, an error
Loading. Please wait.

Fegato Fegato Spappolato Bass Tab

3,142 views 6 this week
no commentswrite comment
1 2 3 4 5
please rate
add to favorites
launch autoscroll
font size
0
reset
guitar tuner
Autoscroll
slow
fast
+/-
esc
set tempo
stop
Help us to improve Ultimate-Guitar.com Take our survey!
×
VASCO ROSSI - FEGATO, FEGATO SPAPPOLATO
ALBUM: NON SIAMO MICA GLI AMERICANI (1979)
BASSIST: Gianemilio Tassoni

INTRO

E ---5-----5----5-------|
A ----------------------|
D -----7-----7----7-----|
G ----------------------|

VERSE

E ---5-----5------5-------5------|
A -------------------------------|
D -----7--5---7--5---7--5---7--5-|
G -------------------------------|


VARIATION
E ---5--------5--------5--------5----------|
A -----------------------------------------|
D -----7--5-5---7--5-5----7--5-5---7--5--5-|
G -----------------------------------------|

BRIDGE

E ----------------|
A --5-(5)---3/----|
D ----------------|
G ----------------|   back to the verse

JAH WOBBLE IS GOD!!
Suggest correction
Give kudos to tab author, rate the tab!
1 2 3 4 5
comments
print report bad tab
guest
You may want to rate the tab now too:
select rating
Please do not post tabs as comments. Select "correction" instead!