Oops, an error
Loading. Please wait.

Incredibile Romantica Tab

version 1
version 1

Whole song

Interactive

3,925 views 9 this week
no commentswrite comment
1 2 3 4 5
3 more votes to show rating
add to favorites
launch autoscroll
font size
0
reset
how to read this tab
guitar tuner
Autoscroll
slow
fast
+/-
esc
set tempo
stop
Help us to improve Ultimate-Guitar.com Take our survey!
×
Author
Difficulty
intermediate
DO=C
RE=D
MI=E
FA=F
SOL=G
LA=A
SI=B

INTRO


(SOL SOL7 DO)

E--------------------------------------------------------------------------|
B--------------------------------------------------------------------------|
G-------------------------16-17-16-17-------------------16-17-16-17--------|
D--17------------14-17-17-------------17----------14-17--------------------|
A-----17---14-15-------------------------17-14-15--------------------17-15-|
E------------------------------------------------------------------15------|
SOL   SOL7       DO SOL   SOL7        DO SOL

Come fai adesso che, sei rimasta solo te

    SOL7              DO              SOL

a sperare in qualche cosa di migliore

  SOL7                         DO MIb
a pensare anche al grande amore

                           SOL -> SOL/FA# -> MIm

sei un'incredibile romantica

            RE              LAm      SIm -> DO

un po' isterica, pero' simpatica

        RE

certo unica...

( SOL SOL/FA DO MIb SOL -> RE -> MIm -> SIm -> DO RE )x2
E------------------------------------------------------------------------|
B----------------------------------3-3-3-3-3-----------------------------|
G------------------------7-5-4-2-0-2-2-2-2-2-----------------------------|
D---------0-3------------9-7-5-4-2-0-0-0-0-0-----------------------------|
A---5--------------------------------------------------------------------|
E-3---3-1-----3-3-5-6-8--------------------------------------------------|


E--------------------------------------------------------------------------|
B--20-20--18-18------------------------------------------------------------|
G--19-19--19-19---------------------------------------------------21-19----|
D---------------20-19-20-19-17-17---17-19-20-20-17-19-20-20-17-19----------|
A--------------------------------------------------------------------------|
E--------------------------------------------------------------------------|

E-------------------------------------------------------------------------|
B-------------------------------------------------------------------------|
D--17-16-17---------------------------------------------------------------|
G-----------19-17-16----16------------------------------------------------|
A--------------------17---------------------------------------------------|
E-------------------------------------------------------------------------|

Come fai adesso che, non c'e' neanche piu' lui con te

lui che aveva grandi cose per la testa

lui che poi un giorno come niente ha detto basta

sei un'inguaribile romantica

           RE              LAm      SIm -> DO

un po' nevrotica, ma non patetica

  RE             SOL -> RE -> MIm -> SIm -> RE   LAm SIm -> DO

certo unica...

      RE

certo unica

OUTRO

SOL SOL/FA DO MIb SOL -> RE -> MIM -> SIm -> DO -> RE ->

SOL SOL/FA DO DOm SOL -> RE -> MIM -> RE -> DO -> RE -> SOL
E-----------------------------------------------------------------------|
B--------------------------20-20----------------------------------------|
G------------9-9-11-12-14--------17-19—16-17-19---------16--------------|
D-----------------------------------------------19-17-19---19-17--------|
A----------------------------------------------------------------17-19--|
E--3-2-0-7-10-----------------------------------------------------------|

E------------------------------------------------------------------------|
B------------------------------------------------------------------------|
G----------19-21-19-16-17-19-19-17-16-17-16------------------------------|
D-16-17-19----------------------------------17-17-19-20—19-17-20-19-17---|
A------------------------------------------------------------------------|
E------------------------------------------------------------------------|

E------------------------------------------------------------------------|
B------------------------------------------------------------------------|
G-19-21-19-17-16-17-16---------------------------------------------------|
D----------------------19-17-----16-17-19h21-19-17-----------------------|
A----------------------------17------------------------------------------|
E------------------------------------------------------------------------|
(SOL SOL7 DO DO -> MIb FA)x2

(SOL -> RE -> MIm -> SIm -> RE  DO RE)x3

SOL -> RE -> MIm -> SIm -> RE  SOL
E------------------------------------------------------------------------|
B------------------------------------------------------------------------|
G----------------------------------------------5-5-----------------------|
D---5-5-5-5--5-5-5-5-5-5-7-8-10--12-10-9-12-12-5-5-12-10-9-12-16-5-------|
A-------------5-5-5-5-5------------------------3-3---------------5-------|
E----------------------------------------------------------------3-------|
Suggest correction
Give kudos to tab author, rate the tab!
1 2 3 4 5
comments
print report bad tab
guest
You may want to rate the tab now too:
select rating
Wanna post a correction for this tab? Suggest correction