Oops, an error
Loading. Please wait.

Stupendo Tab

26,397 views 57 this week
no commentswrite comment
1 2 3 4 5
please rate
add to favorites
launch autoscroll
font size
0
reset
how to read this tab
guitar tuner
Autoscroll
slow
fast
+/-
esc
set tempo
stop
Help us to improve Ultimate-Guitar.com Take our survey!
×
Contributor
Difficulty
uchiha23 1,369
intermediate
-------------------
...STUPENDO
-------------------

Tabbed by: Uchiha 23

Tuning: Standard

INTRO:

e-|---------------------------------------------------------------------------|
B-|-4---------------------------------------------------------1-------1---1---|
G-|---5--5-----3-5—5--3-----------------------------------------0---0---0---0-|
D-|----------5----------7-5-7--7-5-3-----1-3-4--1-3----1-3-4------------------|
A-|------------------------------------3-------------3------------------------|
E-|---------------------------------------------------------------------------|

e-|-------------------------------------------------------------------------|
B-|--------------4-----4-4-4-----6-6-4-4-8-8--8---8-10--11-10-8-10--8-------|
G-|----------5-5---5---------7-7----------------8---------------------10----|
D-|-3-1---------------------------------------------------------------------|
A-|------3------------------------------------------------------------------|
E-|-------------------------------------------------------------------------|

e-|--------------------8-------8----8----------8-8-11-8---|
B-|---4-6-7-6----4-6-7------8----8----8-6-----------------|
G-|-5----------5--------------------------8-5-------------|
D-|-------------------------------------------------------|
A-|-------------------------------------------------------|
E-|-------------------------------------------------------|

E' nei ritagli ormai del tempo
Dom7
che penso a quando tu eri qui
    Fa/Do
era difficile ricordo bene
       Sib/Do
ma era fantastico provarci insieme.
            Dom7
Ed ora che non mi consonolo

guardando una fotografia
    Fa/Do
mi rendo conto che il tempo vola
         Sib/Do
e che la vita poi è una sola.
         Dom
E mi ricordo chi voleva al potere la fantasia...
Lab                           Mib
erano giorni di grandi sogni sai
       Sol             Sol7
erano vere anche le utopie eh
      Dom                Mib
Ma non ricordo e chi c'era
Lab
aveva queste facce qui
Mib
non mi dire che è proprio così
       Sib
non mi dire che son quelli li!
       Sol4                   Sol7 Dom7
Ed ora che del mio domani

non ho più la nostalgia
Fa/Do
ci vuole sempre qualche cosa da bere
         Sib/Do
ci vuole sempre vicino un bicchiere!
         Dom
Ed ora che oramai non tremo

nemmeno per amore... sì!
  Fa/Do
Ci vuole quello che io non ho
         Sib/Do
ci vuole un pelo sullo stomaco!
            Dom7
Però ricordo chi voleva
Lab
un mondo meglio di così!
   Mib
Si proprio tu che ti fai delle storie ma dai
           Sol                   Sol7
cosa vuoi tu più di così eh
     Dom7              Mib
e cosa conta chi perdeva
Lab
le regole sono così
   Mib
è la vita! Ed è ora che cresci!
    Sib
Devi prenderla così...
     Sol4          Sol7
si!!!
Do  Sol/Si
Stupendo!
  Fa7+   Do/Mi
Mi viene il vomito!
               Rem7!
E' più forte di me
Fa/Do              Sol4 Sol7/Fa
non lo so
        Do Sol/Si
se sto qui
       Fa7+
o se ritorno
Do/Mi     Rem7
se ritono
       Fa/Do
se ritorno tra poco, tra poco... tra poco
       Sol4                 Sol7/Fa

STRUM:  Dom7  Fa/Do  Sib/Do  Dom7/9

Però ricordo chi voleva
Lab
un mondo meglio di così!
   Mib
Si proprio tu che ti fai delle storie ma dai
           Sol                   Sol7
cosa vuoi tu più di così eh
     Dom7              Mib
e cosa conta chi perdeva
Lab
le regole sono così
   Mib
è la vita! Ed è ora che cresci!
    Sib
Devi prenderla così...
     Sol4          Sol7
si!!!
Do  Sol/Si
Stupendo!
  Fa7+   Do/Mi
Mi viene il vomito!
               Rem7!
E' più forte di me
Fa/Do              Sol4 Sol7/Fa
non lo so
        Do Sol/Si
se sto qui
       Fa7+
o se ritorno
Do/Mi     Rem7
se ritono
       Fa/Do
se ritorno
       Sol4  Sol7/Fa


OUTRO:

e-|-------3-1---------------3-1----------------3-1----------------3-1-----------|
B-|-1---1-----4-1-----1---1-----4-1-3----1---1-----4-1------1---1-----4-1-3-1---|
G-|---3-----------3-----3------------------3-----------3------3-----------------|
D-|-----------------------------------------------------------------------------|
A-|-----------------------------------------------------------------------------|
E-|-----------------------------------------------------------------------------|


       e-|-------------1--3-1---3--3-3-3-1------8--8-6---8-8--8-6------10-10-6-6-|
       B-|-3--4-3--3-4---------------------4-1---------8----------8-6------------|
       G-|-----------------------------------------------------------------------|
       D-|-----------------------------------------------------------------------|
       A-|-----------------------------------------------------------------------|
       E-|-----------------------------------------------------------------------|

Dom7 – Fa/Do – Si/Do – Dom7

e-|----10-10-6-6----11-11-8------8—8----------------8-11—15--15-18-17-15-13---|
B-|-8------------8----------8-11-----11-8-------------------------------------|
G-|---------------------------------------10-8--------------------------------|
D-|--------------------------------------------10-----------------------------|
A-|---------------------------------------------------------------------------|
E-|---------------------------------------------------------------------------|

e-|-15-13-------13--15-13-11-----15-13-11----10-----------15-13-11--------------|
B-|-------16-13--------------13-----------13-----13-11-13----------13-11--13-11-|
G-|-----------------------------------------------------------------------------|
D-|-----------------------------------------------------------------------------|
A-|-----------------------------------------------------------------------------|
E-|-----------------------------------------------------------------------------|

e-|----15-13-11----10----|
B-|-13----------13----13-|
G-|----------------------|
D-|----------------------|
A-|----------------------|
E-|----------------------|
comments
We did not receive enough feedback on this tab! Please rate:
print report bad tab
1 2 3 4 5
I want to post or [tab]
guest
You may want to rate the tab now too:
select rating
Please do not post tabs as comments. Select "correction" instead!