Oops, an error
Loading. Please wait.

I Woke Up La tab

by VAST
632 views 1 this week
2 commentsread comments
1 2 3 4 5
1 last vote to show rating
add to favorites
×
Save as Personal and add changes to this tab that will be seen only by you. Learn more ›
×
You can save this tab as Personal to edit and correct it or add notes. All changes will be seen only by you. Learn more »
launch autoscroll
font size
0
reset
how to read this tab
guitar tuner
edit
Autoscroll
slow
fast
+/-
esc
set tempo
stop
Intro

(Lead Guitar)
e|---------------------------------|--------------------------------|
B|-4--1-4-1-3--1-3-1-4--1-4-1/8-6--|-4--1-4-1-3--1-3-1-1--1-1-------|
G|-----------------------------5-5-|--------------------------3-3-0-|
D|---------------------------------|--------------------------------|
A|---------------------------------|--------------------------------|
E|---------------------------------|--------------------------------|

e|---------------------------------|--------------------------------|
B|-4--1-4-1-3--1-3-1-4--1-4-1/8-6--|-4--1-4-1-3--1-3-1-1--1-1-------|
G|-----------------------------5-5-|--------------------------3-3-0-|
D|---------------------------------|--------------------------------|
A|---------------------------------|--------------------------------|
E|---------------------------------|--------------------------------|

[Second Guitar Comes In]

(Lead)
e|---------------------------------|--------------------------------|
B|-4--1-4-1-3--1-3-1-4--1-4-1/8-6--|-4--1-4-1-3--1-3-1-1--1-1-------|
G|-----------------------------5-5-|--------------------------3-3-0-|
D|---------------------------------|--------------------------------|
A|---------------------------------|--------------------------------|
E|---------------------------------|--------------------------------|

(Rhythm Guitar)
e|------------------------------------|------------------------------------|
B|------------------------------------|------------------------------------|
G|------------------------------------|------------------------------------|
D|10-1010-10\5-xxxx-6-66-6/13-13\12-12|10-1010-10\5-xxxx-6-66-6/13-13\12-12|
A|10-1010-10\5-xxxx-6-66-6/13-13\12-12|10-1010-10\5-xxxx-6-66-6/13-13\12-12|
E|8 -8 8 -8 \3-xxxx-4-44-4/11-11\10-10|8 -8 8 -8 \3-xxxx-4-44-4/11-11\10-10|


(Lead)
e|---------------------------------|--------------------------------|
B|-4--1-4-1-3--1-3-1-4--1-4-1/8-6--|-4--1-4-1-3--1-3-1-1--1-1-------|
G|-----------------------------5-5-|--------------------------3-3-0-|
D|---------------------------------|--------------------------------|
A|---------------------------------|--------------------------------|
E|---------------------------------|--------------------------------|

(Rhythm)
e|------------------------------------|------------------------------------|
B|------------------------------------|------------------------------------|
G|------------------------------------|------------------------------------|
D|10-1010-10\5-xxxx-6-66-6/13-13\12-12|10-1010-10\5-xxxx-6-66-6/13-13\12-12|
A|10-1010-10\5-xxxx-6-66-6/13-13\12-12|10-1010-10\5-xxxx-6-66-6/13-13\12-12|
E|8 -8 8 -8 \3-xxxx-4-44-4/11-11\10-10|8 -8 8 -8 \3-xxxx-4-44-4/11-11\10-10|


Verse  [Rhythm Only]

(Softly)
e|--------------------------------|--------------------------------|
B|--------------------------------|--------------------------------|
G|--------------------------------|--------------------------------|
D|--------------------------------|--------------------------------|
A|10-1010-10\5--5--5/6-6/13-13\12-|10-1010-10\5--5--5/6-6/13-13\12-|
E|8 -8 8 -8 \3--3--3/4-4/11-11\10-|8 -8 8 -8 \3--3--3/4-4/11-11\10-|

e|--------------------------------|--------------------------------|
B|--------------------------------|--------------------------------|
G|--------------------------------|--------------------------------|
D|--------------------------------|--------------------------------|
A|10-1010-10\5--5--5/6-6/13-13\12-|10-1010-10\5--5--5/6-6/13-13\12-|
E|8 -8 8 -8 \3--3--3/4-4/11-11\10-|8 -8 8 -8 \3--3--3/4-4/11-11\10-|


Chorus  [Rhythm Only]

(Louder)
e|----------------------------------|----------------------------------|
B|----------------------------------|----------------------------------|
G|----------------------------------|----------------------------------|
D|1515151515151515\13131313/17171717|1515151515151515\13131313/17171717|
A|1515151515151515\13131313/17171717|1515151515151515\13131313/17171717|
E|1313131313131313\11111111/15151515|1313131313131313\11111111/15151515|

e|--------------------------------|
B|--------------------------------|
G|--------------------------------|
D|131313131313xxxx121212121212xxxx|
A|131313131313xxxx121212121212xxxx|
E|111111111111xxxx101010101010xxxx|

Bridge  [Lead Comes In]

(Lead)
e|---------------------------------|--------------------------------|
B|-4--1-4-1-3--1-3-1-4--1-4-1/8-6--|-4--1-4-1-3--1-3-1-1--1-1-------|
G|-----------------------------5-5-|--------------------------3-3-0-|
D|---------------------------------|--------------------------------|
A|---------------------------------|--------------------------------|
E|---------------------------------|--------------------------------|

(Rhythm)
e|------------------------------------|------------------------------------|
B|------------------------------------|------------------------------------|
G|------------------------------------|------------------------------------|
D|10-1010-10\5-xxxx-6-66-6/13-13\12-12|10-1010-10\5-xxxx-6-66-6/13-13\12-12|
A|10-1010-10\5-xxxx-6-66-6/13-13\12-12|10-1010-10\5-xxxx-6-66-6/13-13\12-12|
E|8 -8 8 -8 \3-xxxx-4-44-4/11-11\10-10|8 -8 8 -8 \3-xxxx-4-44-4/11-11\10-10|


Verse  [Rhythm Only]

e|------------------------------------|------------------------------------|
B|------------------------------------|------------------------------------|
G|------------------------------------|------------------------------------|
D|10-1010-10\5-xxxx-6-66-6/13-13\12-12|10-1010-10\5-xxxx-6-66-6/13-13\12-12|
A|10-1010-10\5-xxxx-6-66-6/13-13\12-12|10-1010-10\5-xxxx-6-66-6/13-13\12-12|
E|8 -8 8 -8 \3-xxxx-4-44-4/11-11\10-10|8 -8 8 -8 \3-xxxx-4-44-4/11-11\10-10|

e|------------------------------------|------------------------------------|
B|------------------------------------|------------------------------------|
G|------------------------------------|------------------------------------|
D|10-1010-10\5-xxxx-6-66-6/13-13\12-12|10-1010-10\5-xxxx-6-66-6/13-13\12-12|
A|10-1010-10\5-xxxx-6-66-6/13-13\12-12|10-1010-10\5-xxxx-6-66-6/13-13\12-12|
E|8 -8 8 -8 \3-xxxx-4-44-4/11-11\10-10|8 -8 8 -8 \3-xxxx-4-44-4/11-11\10-10|


Chorus  [Rhythm Only]

e|----------------------------------|----------------------------------|
B|----------------------------------|----------------------------------|
G|----------------------------------|----------------------------------|
D|1515151515151515\13131313/17171717|1515151515151515\13131313/17171717|
A|1515151515151515\13131313/17171717|1515151515151515\13131313/17171717|
E|1313131313131313\11111111/15151515|1313131313131313\11111111/15151515|

e|--------------------------------|--------------------------------|
B|--------------------------------|--------------------------------|
G|--------------------------------|--------------------------------|
D|131313131313xxxx121212121212xxxx|131313131313xxxx121212121212xxxx|
A|131313131313xxxx121212121212xxxx|131313131313xxxx121212121212xxxx|
E|111111111111xxxx101010101010xxxx|111111111111xxxx101010101010xxxx|


Pre-Chorus

(Rhythm - Slightly Softer)
e|--------------------------------|--------------------------------|
B|--------------------------------|--------------------------------|
G|--------------------------------|--------------------------------|
D|--------------------------------|--------------------------------|
A|10-1010-10\5-xxxx-/6-6/13-13\12-|10-1010-10\5-xxxx-/6-6/13-13\12-|
E|8 -8 8 -8 \3-xxxx-/4-4/11-11\10-|8 -8 8 -8 \3-xxxx-/4-4/11-11\10-|

e|--------------------------------|--------------------------------|
B|--------------------------------|--------------------------------|
G|--------------------------------|--------------------------------|
D|--------------------------------|--------------------------------|
A|10-1010-10\5-xxxx-/6-6/13-13\12-|10-1010-10\5-xxxx-/6-6/13-13\12-|
E|8 -8 8 -8 \3-xxxx-/4-4/11-11\10-|8 -8 8 -8 \3-xxxx-/4-4/11-11\10-|

[Lead Only]

(Lead)
e|---------------------------------|--------------------------------|
B|-4--1-4-1-3--1-3-1-4--1-4-1/8-6--|-4--1-4-1-3--1-3-1-1--1-1-------|
G|-----------------------------5-5-|--------------------------3-3-0-|
D|---------------------------------|--------------------------------|
A|---------------------------------|--------------------------------|
E|---------------------------------|--------------------------------|

e|---------------------------------|--------------------------------|
B|-4--1-4-1-3--1-3-1-4--1-4-1/8-6--|-4--1-4-1-3--1-3-1-1--1-1-------|
G|-----------------------------5-5-|--------------------------3-3-0-|
D|---------------------------------|--------------------------------|
A|---------------------------------|--------------------------------|
E|---------------------------------|--------------------------------|


Chorus [Rhythm Only]

e|----------------------------------|----------------------------------|
B|----------------------------------|----------------------------------|
G|----------------------------------|----------------------------------|
D|1515151515151515\13131313/17171717|1515151515151515\13131313/17171717|
A|1515151515151515\13131313/17171717|1515151515151515\13131313/17171717|
E|1313131313131313\11111111/15151515|1313131313131313\11111111/15151515|

e|--------------------------------|--------------------------------|
B|--------------------------------|--------------------------------|
G|--------------------------------|--------------------------------|
D|131313131313xxxx121212121212xxxx|131313131313xxxx121212121212xxxx|
A|131313131313xxxx121212121212xxxx|131313131313xxxx121212121212xxxx|
E|111111111111xxxx101010101010xxxx|1!1111111111xxxx101010101010xxxx|


Outro

(Lead)
e|---------------------------------|--------------------------------|
B|-4--1-4-1-3--1-3-1-4--1-4-1/8-6--|-4--1-4-1-3--1-3-1-1--1-1-------|
G|-----------------------------5-5-|--------------------------3-3-0-|
D|---------------------------------|--------------------------------|
A|---------------------------------|--------------------------------|
E|---------------------------------|--------------------------------|

(Rhythm)
e|------------------------------------|------------------------------------|
B|------------------------------------|------------------------------------|
G|------------------------------------|------------------------------------|
D|10-1010-10\5-xxxx-6-66-6/13-13\12-12|10-1010-10\5-xxxx-6-66-6/13-13\12-12|
A|10-1010-10\5-xxxx-6-66-6/13-13\12-12|10-1010-10\5-xxxx-6-66-6/13-13\12-12|
E|8 -8 8 -8 \3-xxxx-4-44-4/11-11\10-10|8 -8 8 -8 \3-xxxx-4-44-4/11-11\10-10|

(Lead)
e|---------------------------------|--------------------------------|
B|-4--1-4-1-3--1-3-1-4--1-4-1/8-6--|-4--1-4-1-3--1-3-1-1--1-1-------|
G|-----------------------------5-5-|--------------------------3-3-0-|
D|---------------------------------|--------------------------------|
A|---------------------------------|--------------------------------|
E|---------------------------------|--------------------------------|

(Rhythm)
e|------------------------------------|------------------------------------|
B|------------------------------------|------------------------------------|
G|------------------------------------|------------------------------------|
D|10-1010-10\5-xxxx-6-66-6/13-13\12-12|10-1010-10\5-xxxx-6-66-6/13-13\12-12|
A|10-1010-10\5-xxxx-6-66-6/13-13\12-12|10-1010-10\5-xxxx-6-66-6/13-13\12-12|
E|8 -8 8 -8 \3-xxxx-4-44-4/11-11\10-10|8 -8 8 -8 \3-xxxx-4-44-4/11-11\10-10|

(Lead)
e|---------------------------------|--------------------------------|
B|-4--1-4-1-3--1-3-1-4--1-4-1/8-6--|-4--1-4-1-3--1-3-1-1--1-1-------|
G|-----------------------------5-5-|--------------------------3-3-0-|
D|---------------------------------|--------------------------------|
A|---------------------------------|--------------------------------|
E|---------------------------------|--------------------------------|

(Rhythm)
e|------------------------------------|------------------------------------|
B|------------------------------------|------------------------------------|
G|------------------------------------|------------------------------------|
D|10-1010-10\5-xxxx-6-66-6/13-13\12-12|10-1010-10\5-xxxx-6-66-6/13-13\12-12|
A|10-1010-10\5-xxxx-6-66-6/13-13\12-12|10-1010-10\5-xxxx-6-66-6/13-13\12-12|
E|8 -8 8 -8 \3-xxxx-4-44-4/11-11\10-10|8 -8 8 -8 \3-xxxx-4-44-4/11-11\10-10|

            
            
Suggest correction
Creating personal tab
Creating personal tab
You can edit any tab online and save it as your Personal.

You can edit, replace or remove any tab part or add personal notes – all changes will be seen only by you.

Personal tabs can be accessed anytime from any device, even offline.
Learn more »
Give kudos to tab author, rate the tab!
1 2 3 4 5
comments
print report bad tab
2 comments total.
0 reply
good_sir_pete 185 May 04, 2007 04:06 AM

made one mistake: in the second part of the chorus it's

13 not 13
13 13
11 10

-1 reply
dexmix 10 Jul 10, 2009 10:39 PM

The intro is wrong, no wringing, and it completely misses the octave.
this is pretty close - the end is a little fuzzy but these are the correct notes.
e ------------------------------------------
b -4--4-3--3-4--4-8-6-4--4-3--3-1--1---1-1--
G ---5-5--5-5--5-5-5-5--5-5--5-5--5-5-3-0---

guest
You may want to rate the tab now too:
select rating
Wanna post a correction for this tab? Suggest correction