Oops, an error
Loading. Please wait.

Last One Alive tab

by VAST
2,454 views 3 this week
3 commentsread comments
1 2 3 4 5
1 last vote to show rating
add to favorites
×
Save as Personal and add changes to this tab that will be seen only by you. Learn more ›
×
You can save this tab as Personal to edit and correct it or add notes. All changes will be seen only by you. Learn more »
launch autoscroll
font size
0
reset
how to read this tab
guitar tuner
edit
Autoscroll
slow
fast
+/-
esc
set tempo
stop
Author
Intro
e--------------------------
B--------------------------
G--000000000000000000000000
D--000000000000000000000000
A--555555555555555555555555
E--777777774444444400000000

Break 

e -----------------------
B -----------------------
G --777777----999999-----
D --777777----999999-----
A --555555----777777-----
E -----------------------

Pre - chorus

e -----------------
B -----------------
G -----7----4------
D -----------------
A --5--------------
E -----------------

Chorus

e ------------------------------------------------------
B ------------------------------------------------------
G --777777-----------------777777-----------------777777
D --777777-77777--9999999--777777-77777--9999999--777777
A --555555-77777--9999999--555555-77777--9999999--555555
E ----------------7777777----------------7777777--------

e ------------------------------------------
B ------------------------------------------
G -----------------777777--------9999999----
D -77777--9999999--777777-77777--9999999----
A -77777--9999999--555555-77777--7777777----
E --------7777777---------55555-------------

Keyboard bit

D ---------------------
A ----------------555--
E --777--444--000------


Structure: Verse x6
           Break
           Verse x2
           Pre - chorus x8
           Chorus
           Keyboard x2
           Verse x2
           Pre - chorus x8
           Chorus
           Keyboard x4
Suggest correction
Creating personal tab
Creating personal tab
You can edit any tab online and save it as your Personal.

You can edit, replace or remove any tab part or add personal notes – all changes will be seen only by you.

Personal tabs can be accessed anytime from any device, even offline.
Learn more »
Give kudos to tab author, rate the tab!
1 2 3 4 5
comments
print report bad tab
3 comments total.
0 reply
geminus 10 Sep 30, 2002 08:00 PM

the introduction/Verse is played using these chords(I'm pretty sure, everyone makes mistakes)
--0-0-0-0-0-0-0-0-0-0-0-0-0-0-0-0-|
--3-3-3-3-3-3-3-3-3-3-3-3-3-3-3-3-|
--4-4-4-4-4-4-4-4-4-4-4-4-4-4-4-4-|
--4-4-4-4-4-4-4-4-2-2-2-2-2-2-2-2-|
--2-2-2-2-2-2-2-2-2-2-2-2-2-2-2-2-|
--0-0-0-0-0-0-0-0-4-4-4-4-4-4-4-4-|

--0-0-0-0-0-0-0-0-0-0-0-0-0-0-0-0-|
--3-3-3-3-3-3-3-3-3-3-3-3-3-3-3-3-|
--4-4-4-4-4-4-4-4-4-4-4-4-4-4-4-4-|
--2-2-2-2-2-2-2-2-2-2-2-2-2-2-2-2-|
--2-2-2-2-2-2-2-2-2-2-2-2-2-2-2-2-|
--0-0-0-0-0-0-0-0-0-0-0-0-0-0-0-0-|
And For the chorus I believe there is an acoustic guitar playing full chord's and an electric guitar playing what you have written.

0 reply
deadwilly 30 Mar 02, 2009 08:58 AM

im pretty sure everyone makes mistake qeminus its:

--0-0-0-0-0-0-0-0-0-0-0-0-0-0-0-0-|
--0-0-0-0-0-0-0-0-0-0-0-0-0-0-0-0-|
--4-4-4-4-4-4-4-4-4-4-4-4-4-4-4-4-|
--0-0-0-0-0-0-0-0-0-0-0-0-0-0-0-0-|
--2-2-2-2-2-2-2-2-2-2-2-2-2-2-2-2-|
------------------4-4-4-4-4-4-4-4-|

--0-0-0-0-0-0-0-0-0-0-0-0-0-0-0-0-|
--0-0-0-0-0-0-0-0-0-0-0-0-0-0-0-0-|
--4-4-4-4-4-4-4-4-4-4-4-4-4-4-4-4-|
--2-2-2-2-2-2-2-2-2-2-2-2-2-2-2-2-|
--2-2-2-2-2-2-2-2-2-2-2-2-2-2-2-2-|
--0-0-0-0-0-0-0-0-0-0-0-0-0-0-0-0-|

0 reply
deadwilly 30 Mar 02, 2009 08:59 AM

low E string line got messed up whatever u get it

guest
You may want to rate the tab now too:
select rating
Wanna post a correction for this tab? Suggest correction