Oops, an error
Loading. Please wait.

Hard To Be chords

139 views 24 this week
no commentswrite comment
1 2 3 4 5
2 more votes to show rating
add to favorites
×
Save as Personal and add changes to this tab that will be seen only by you. Learn more ›
×
You can save this tab as Personal to edit and correct it or add notes. All changes will be seen only by you. Learn more »
launch autoscroll
font size
0
reset
transpose
0
reset
simplify chords
display chords
guitar tuner
edit
Autoscroll
slow
fast
+/-
esc
set tempo
stop
Strumming
There is no strumming pattern for this song yet. and get +5 IQ
[Intro]
"Roll and I'll just feel something."

e|---------------------|-----------------------|---------------------|
B|---------------------|-----------------------|---------------------|
G|---------------------|-----------------------|---------------------|
D|---------------------|-----------------------|-9-9-11---12-12-11-9-|
A|-9-9-11---12-12-11---|-12-12-11---12-12-11-9-|-7-7-7--7-7--7--7--7-|
E|-7-7-7--7-7--7--7--7-|-7--7--7--7-7--7--7--7-|---------------------|

e|------------------------|------------------------|------------------------|
B|------------------------|------------------------|------------------------|
G|------------------------|------------------------|------------------------|
D|-12-12-11---12-12-11-12/|-11-11-13---14-14-13-11-|-14-14-13---14-14-13-11-|
A|-7--7--7--7-7--7--7--7/-|-9--9--9--9-9--9--9--9--|-9--9--9--9-9--9--9--9--|
E|------------------------|------------------------|------------------------|

e|---------------------|-----------------------|
B|---------------------|-----------------------|
G|-8-------------------|-----------------------|
D|-7---11---12-12-11---|-12-12\11---12-12-11-9-|
A|-9-9-11---12-12-11-9-|-12-12\11-9-12-12-12-9-|
E|-7-7-7--7-7--7--7--7-|-7--7-----7-7--7--7--7-|

[Verse 1]
     B                      E
It's hard to be, yeah, it's hard for me
              F#               B
to keep arm's lenght from my baby.
                                E
Whoa, can't you see? When I'm a-way from her yeah,
        F#                 B
it sho-'nuff drives me cra-zy.
    E                      F# F#6       F#
Oh, somethin' in side of me, when she's gone,
F#6          G#m
I miss her so, I wanna tell her how I feel,
A                    F#
I just gotta let her know.
B
When I'm alone with her,
E           F#                   B
and she's in my arms, I'm in hea-ven.

[Instrumental]
B E F# E

[Verse 2]
B             E
All I see, in all my dreams,
           F#         B
we'll be happy togeth-er.
                          E
Side by side, I hope that our love
          F#             B
will stay this way forev-er.
    E
Oh, somethin' inside of me,
F#   F#6     F# F#6
Got a feelin' I won't let go.
G#m
I wanña tell her how I feel.
A                    F#
I just gotta let her know.
B                                  E
Lookin' through her eyes I see par-adice,
       F#                 B
no mis-take she's full of fire.
B
Well, like a real live wire, a house on fire,
              E        F#       B
she's my burn-in', burnin' desire.

[Instrumental]
B E F#

[Solo]
B E F# B E F#
G#m A F# B E F# B

[Verse 3]
           B                     E
Well, It's hard to be yeah, it's hard for me
             F#                B
to keep arm's lenght from my baby.
                                E
Whoa, can't you see? When I'm a-way from her yeah,
        F#                 B
it sho-'nuff drives me cra-zy.
    E                       F# F#6      F# F#6
Oh, somethin' in side of me, when she's gone,
               G#m
I miss her so, I wanna tell her how I feel,
A                    F#
I just gotta let her know.
B
When I'm all alone with her,
E              F#                B
and she's in my arms, I'm in hea-ven.
B
Like a real live wire, a house on fire,
              E                 F#                B
she's my burn-in', she's my burnin', burnin' desire.

[Outro]
B                E
Hard to be, it's hard for me,
F#                               B
hard to keep, keep me from my ba-by.
                    E
Hard to be, it's so hard to me,
F#                               B
hard to keep, keep me from my ba-by.
            E
Hard to be, hard for me,
                    F#             B
hard for me, to keep me from my ba-by.

            
            
Suggest correction
Creating personal tab
Creating personal tab
You can edit any tab online and save it as your Personal.

You can edit, replace or remove any tab part or add personal notes – all changes will be seen only by you.

Personal tabs can be accessed anytime from any device, even offline.
Learn more »
Give kudos to tab author, rate the tab!
1 2 3 4 5
comments
print report bad tab
guest
You may want to rate the tab now too:
select rating
Wanna post a correction for this tab? Suggest correction