Oops, an error
Loading. Please wait.

Sin Titulo tab

by Vega
8 views 1 this week
no commentswrite comment
1 2 3 4 5
3 more votes to show rating
add to favorites
×
Save as Personal and add changes to this tab that will be seen only by you. Learn more ›
×
You can save this tab as Personal to edit and correct it or add notes. All changes will be seen only by you. Learn more »
launch autoscroll
font size
0
reset
how to read this tab
guitar tuner
edit
Autoscroll
slow
fast
+/-
esc
set tempo
stop
Hola! Este es el Bouns Track del disco de Vega. Espero que os guste.
Va dedicada para Sara, que me permitió conocer ésta preciosa canción.
Un beso desde aquí.

NOTA: Para que suene como en el disco hay que afinar la guitarra 2 semitonos
 más grave de lo normal.


La persiana está abajo en este cuarto
 C/D                         Am
|--------------------------------|-------0-------0-------0---------
|------3-------3-------3---------|-----1-----1-------1------1----1-
|----0-----0-------0-------0---0-|---2---------2-------2-------2---
|--2---------2-------2-------2---|---------------------------------
|3-------------------------------|-0-------------------------------
|--------------------------------|---------------------------------
                                                
Versos que dicen todo y dicen nada      
 D7sus4/C                   G
|------3-------3-------3---------|---------------------------------
|----1-----1-------1-------1---1-|-------3-------3-------3---------
|--2---------2-------2-------2---|-----0-----0-------0-------0---0-
|--------------------------------|---0---------0-------0-------0---
|3-------------------------------|---------------------------------
|--------------------------------|-3-------------------------------
                                    
Pensamientos que ya empapan mi almohada         Aute de fondo susurrando
 C/D                         Am
|--------------------------------|-------0-------0-------0---------
|------3-------3-------3---------|-----1-----1-------1------1----1-
|----0-----0-------0-------0---0-|---2---------2-------2-------2---
|--2---------2-------2-------2---|---------------------------------
|3-------------------------------|-0-------------------------------
|--------------------------------|---------------------------------

Je veux    faire            l'amour avec        toi
 D7sus4/C                   G               C/D      
|------3-------3-------3---------|-----------------|-----------------|
|----1-----1-------1-------1---1-|-------3-------3-|-------3-------3-|
|--2---------2-------2-------2---|-----0-----0-----|-----0-----0-----|
|--------------------------------|---0---------0---|---2---------2---|
|3-------------------------------|-----------------|-3---------------|
|--------------------------------|-3---------------|-----------------|


No consigo cocentrarme y me digo
No seas tonta que aquí no se está tan mal      
Pero la vida me demuestra lo contrario            Dia a dia voy matando
La esperanza de escapar      

Solo espero esa sonrisa atribulada            Y aunque mientas me regales ese instante
donde dices tan seguro que todo irá mejor
Esa voz que me repite cada dia                  No estes triste y descansa vida mía
Ya verás como mañana te encontrarás mejor      

He intentado levantar esa persiana            
Escribir mil idioteces que hagan gracia      
Y secar mi almohada a carcajadas            Y otra música de fondo
que no me arranque la emoción

Y con todo he conseguido más bien poco      
Tras el cristal todo estaba aún nublado            
La almohada casi muere en un naufragio            Cuando oí a Silvio susurrando
Mi unicornio azul ayer se me perdió

Solo espero que consigas darte cuenta 
Y aunque sea difícil al final comprendas
Que aunque ponga voluntad no habrá             nada en el mundo
Que me haga olvidar que no estás cerca            Que me enseñe a vivir sin repetirme
cuanto te echo de menos


Y esto es todo. Creo que está medio bien sacado.
De todas formas, si véis algún fallo no dudéis en
decírmelo a  quepasapues@

Javier

            
            
Suggest correction
Creating personal tab
Creating personal tab
You can edit any tab online and save it as your Personal.

You can edit, replace or remove any tab part or add personal notes – all changes will be seen only by you.

Personal tabs can be accessed anytime from any device, even offline.
Learn more »
Give kudos to tab author, rate the tab!
1 2 3 4 5
comments
print report bad tab
guest
Wanna post a correction for this tab? Suggest correction