Oops, an error
Loading. Please wait.

Daenerys tab

version 1
version 1

Whole song

Interactive

2,669 views 39 this week
no commentswrite comment
1 2 3 4 5
3 more votes to show rating
add to favorites
×
Save as Personal and add changes to this tab that will be seen only by you. Learn more ›
×
You can save this tab as Personal to edit and correct it or add notes. All changes will be seen only by you. Learn more »
launch autoscroll
font size
0
reset
how to read this tab
guitar tuner
edit
Autoscroll
slow
fast
+/-
esc
set tempo
stop
-------------------------------------------------------------------------------
                             Daenerys - Veil Of Maya
-------------------------------------------------------------------------------
Tabbed by: Kristyn Lee
E-mail: spot_the_village_loony_836@hotmail.com

Tuning: Drop b


Intro
C#|----------------------------------------|
G#|----------------------------------------|
E |----------------7-5---------------------|
B |---12/15--7/8---5-5-7-8-10--------------|
F#|---8-/12--3/5---6-6-5-5-8---------------|
B |---8-/12--3/5-------4-5-8--1-00-1-------|
                                ..
0:05
C#|-------------------------------------------------------------|
G#|-------------------------------------------------------------|
E |-------------------------------------------------------------|
B |---7-8-10-12-10----------------------------------------------|
F#|---5-5-8--8--8--8---------5----111--------------5---5/6------|
B |---4-5-8--8--8--8---1--11---1------333--11-1-11---1-----11---|
                          ..      ... ...  ..   ..   .     ..
0:13
C#|--------------------19/21--------------|
G#|---17p14---14-17p14--------------------|
E |--------14-----------------------------|
B |---------------------------------------|
F#|---------------------------------------|
B |---------------------------------------|

0:15
C#|----------------------------------------|
G#|----------------------------------------|
E |----------------7-5---------------------|
B |---12/15--7/8---5-5-7-8-10--------------|
F#|---8-/12--3/5---6-6-5-5-8---------------|
B |---8-/12--3/5-------4-5-8--1-00-1-------|
                                ..
0:20
C#|-----------------------------------------------|
G#|-----------------------------------------------|
E |-----------------------------------------------|
B |---7-8-10-12-10--------------------------------|
F#|---5-5-8--8--8--8---------5----111-------------|
B |---4-5-8--8--8--8---1--11---1------333---------|
                          ..      ... ... 
0:27
C#|-------------------------------------------------------------------|
G#|-------------------------------------------------------------------|
E |-------------------------------------------------------------------|
B |-------------------------------------------------------------------|
F#|---00-0-0--0-0-00-0-0--00--0-0--0-0--0--0--000-000-00--0-000-------|
B |---11-1-1--1-1-11-1-1--11--1-1--1-1--1--1--111-111-11--1-111--0----|
      .. . .  . . .. . .  ..  . .  . .  .  .  ... ... ..  . ...
0:34
C#|------------------------------------------------------------------|
G#|----------------------------------------------------------3*b-----|
E |--------------------------------------------------------5---------|
B |------------------------------------------------------5-----------|
F#|---1-11-111-111-11-111-111-11-11-1-111-11-111-11-111--------------|
B |---1-11-111-111-11-111-111-11-11-1-111-11-111-11-111--------------|
      . .. ... ... .. ... ... .. .. . ... .. ... .. ...
0:41
C#|-------------------------------------|
G#|-------------------------------------|
E |-------------------------------------|
B |-------------------------------------|
F#|---1-11-111-111-11-111-111-11111-----|
B |---1-11-111-111-11-111-111-11111-----|
      . .. ... ... .. ... ... .....
0:44
C#|------------------------------------------------------------|
G#|------------------------------------------------------------|
E |------------------------------------------------------------|
B |-----------------------------------------------------1------|
F#|---1-1-111-111-11-1-111-1-1-1--1-1-111-111-1-1-111-5---5----|
B |---1-1-111-111-11-1-111-1-1-1--1-1-111-111-1-1-111----------|
      . . ... ... .. . ... . . .  . . ... ... . . ...
0:52
C#|----------------------------------------------------6-5-----|
G#|--------------------------------------------------------6---|
E |------------------------------------------------------------|
B |------------------------------------------------------------|
F#|---1-1-111-111-11-1-111-1-1-1--1-1-111-111-1-1-111----------|
B |---1-1-111-111-11-1-111-1-1-1--1-1-111-111-1-1-111----------|

0:59
C#|---------------------------------------------------------|
G#|------------------------------15-------------------------|
E |------------------------10/12----------------------------|
B |-----5h7h8----12-----------------------------------------|
F#|-----------------------------------------12/13-----10----|
B |---5--------8-----12-13------------12-10---------8-------|
      .        .     .  .             .  .          .
1:02
C#|------------------------------------------------------------|
G#|------------------------------15----------------------------|
E |------------------------10/12-------------------------------|
B |-----5h7h8----12------------------------------10h12p10h12---|
F#|----------------------------------------12-13---------------|
B |---5--------8-----12-13-----------12-10---------------------|
      .        .     .  .           
1:06
C#|---------------------------------------------------------|
G#|------------------------------15-------------------------|
E |------------------------10/12----------------------------|
B |-----5h7h8----12-----------------------------------------|
F#|-----------------------------------------12/13-----10----|
B |---5--------8-----12-13------------12-10---------8-------|
      .        .     .  .             .  .          .
1:10
C#|------------------------------------------------------------|
G#|------------------------------15----------------------------|
E |------------------------10/12-------------------------------|
B |-----5h7h8----12------------------------------10h12p10h12---|
F#|----------------------------------------12-13---------------|
B |---5--------8-----12-13-----------12-10---------------------|
      .        .     .  .           
1:14
C#|---------------------------------------------------------|
G#|------------------------------15-------------------------|
E |------------------------10/12----------------------------|
B |-----5h7h8----12-----------------------------------------|
F#|-----------------------------------------12/13-----10----|
B |---5--------8-----12-13------------12-10---------8-------|
      .        .     .  .             .  .          .
1:17           
C#|-----------------------------------------|
G#|-------------------11111111--13131313----|
E |-------------------x-x-x-x----x-x-x-x----|
B |-----5h7h8----12---8-8-8-8---10101010----|
F#|-------------------8-8-8-8---10101010----|
B |---5--------8------8-8-8-8---10101010----|
      .        .

     Chorus
1:22
C#|-------------------------------------------------------------|
G#|-------------------------------------3-----------3-----------|
E |-----------------------------------0---0-------0---0---------|
B |---/7------------0---------------3-------3---3---------------|
F#|-------------1/3---1-3---3/5--1------------1----------11-----|
B |------5\1-0------------3------1------------1----------11-----|
                                                         ..
1:29
C#|-------------------------------------------------------------|
G#|--------------------------------------3-----------3----------|
E |------------------------------------0---0-------0---2--------|
B |---/7--------10----10----8-888----3-------3---3--------------|
F#|-------------8--8--8--8--5-555--1-----------1----------------|
B |------5\1-0--8--8--8--8--5-555--1-----------1----------------|
                   .     .    ..
1:36
C#|-------------------------------------------------------------|
G#|--------------------------------------3-----------3----------|
E |------------------------------------0---0-------0---0--------|
B |-------------10----10----8-888----3-------3---3--------------|
F#|-------------8--8--8--8--5-555--1-----------1---------111----|
B |---/7-5\1-0--8--8--8--8--5-555--1-----------1---------111----|
                   .     .    ..                         ...
1:43
C#|-------------------------------------------------------------|
G#|--------------------------------------3-----------3----------|
E |------------------------------------0---0-------0---2--------|
B |---/7--------10----10----8-888----3-------3---3--------------|
F#|-------------8--8--8--8--5-555--1-----------1----------------|
B |------5\1-0--8--8--8--8--5-555--1-----------1----------------|
                   .     .    ..    

1:50
C#|---------------------------------------------------------|
G#|------------------------------15-------------------------|
E |------------------------10/12----------------------------|
B |-----5h7h8----12-----------------------------------------|
F#|-----------------------------------------12/13-----10----|
B |---5--------8-----12-13------------12-10---------8-------|
      .        .     .  .             .  .          .
1:54
C#|------------------------------------------------------------|
G#|------------------------------15----------------------------|
E |------------------------10/12-------------------------------|
B |-----5h7h8----12------------------------------10h12p10h12---|
F#|----------------------------------------12-13---------------|
B |---5--------8-----12-13-----------12-10---------------------|
      .        .     .  .           
1:57
C#|---------------------------------------------------------|
G#|------------------------------15-------------------------|
E |------------------------10/12----------------------------|
B |-----5h7h8----12-----------------------------------------|
F#|-----------------------------------------12/13-----10----|
B |---5--------8-----12-13------------12-10---------8-------|
      .        .     .  .             .  .          .
2:01
C#|------------------------------------------------------------|
G#|------------------------------15----------------------------|
E |------------------------10/12-------------------------------|
B |-----5h7h8----12------------------------------10h12p10h12---|
F#|----------------------------------------12-13---------------|
B |---5--------8-----12-13-----------12-10---------------------|
      .        .     .  .           
2:05
C#|---------------------------------------------------------|
G#|------------------------------15-------------------------|
E |------------------------10/12----------------------------|
B |-----5h7h8----12-----------------------------------------|
F#|-----------------------------------------12/13-----10----|
B |---5--------8-----12-13------------12-10---------8-------|
      .        .     .  .             .  .          .
2:08
C#|------------------------|
G#|------------------------|
E |------------------------|
B |-----5h7h8----12--------|
F#|------------------------|
B |---5--------8-----------|
      .        . 

     Bridge           
2:11
C#|--------------------------------------------------------------------------|
G#|-----------444---------4/11-----------------------444---------------------|
E |-----------777--------------8---------------------777---------------------|
B |---------------------------------------4*------------------------12\\\----|
F#|---0-1-0--------0-1-0-----------0-1-0------0-1-0-------0-1-0--0--12\\\----|
B |---0-1-0--------0-1-0-----------0-1-0------0-1-0-------0-1-0--0--12\\\----|

C#|--------------------------------------------------------------------------------|
G#|-----------444---------4/11---------------------444---------4/11----------------|
E |-----------777--------------8-------------------777--------------8--------------|
B |---------------------------------------------------------------------------4*---|
F#|---0-1-0--------0-1-0-----------0-1-0-00-0-1-0-------0-1-0----------0-1-0-------|
B |---0-1-0--------0-1-0-----------0-1-0-00-0-1-0-------0-1-0----------0-1-0-------|
                                         ..
C#|------------------------------------10-------------------------------------|
G#|----------444---------4/11---11---8-------------444---------4/11-----------|
E |----------777--------------8----8---------------777--------------8---------|
B |---------------------------------------------------------------------------|
F#|---0-1-0-------0-1-0---------------------0-1-0-------0-1-0----------12\----|
B |---0-1-0-------0-1-0---------------------0-1-0-------0-1-0----------12\----|


      Chorus
2:32
C#|-------------------------------------------------------------|
G#|-------------------------------------3-----------3-----------|
E |-----------------------------------0---0-------0---0---------|
B |---/7------------0---------------3-------3---3---------------|
F#|-------------1/3---1-3---3/5--1------------1----------11-----|
B |------5\1-0------------3------1------------1----------11-----|
                                                         ..
C#|-------------------------------------------------------------|
G#|--------------------------------------3-----------3----------|
E |------------------------------------0---0-------0---2--------|
B |---/7--------10----10----8-888----3-------3---3--------------|
F#|-------------8--8--8--8--5-555--1-----------1----------------|
B |------5\1-0--8--8--8--8--5-555--1-----------1----------------|
                   .     .    ..
C#|-------------------------------------------------------------|
G#|--------------------------------------3-----------3----------|
E |------------------------------------0---0-------0---0--------|
B |-------------10----10----8-888----3-------3---3--------------|
F#|-------------8--8--8--8--5-555--1-----------1---------111----|
B |---/7-5\1-0--8--8--8--8--5-555--1-----------1---------111----|
                   .     .    ..                         ...
C#|-------------------------------------------------------------|
G#|--------------------------------------3-----------3----------|
E |------------------------------------0---0-------0---2--------|
B |---/7--------10----10----8-888----3-------3---3--------------|
F#|-------------8--8--8--8--5-555--1-----------1----------------|
B |------5\1-0--8--8--8--8--5-555--1-----------1----------------|
                   .     .    ..  

not sure about this part  

3:01
C#|---------------------------------------------------------------|
G#|---------------------------------------------------------------|
E |---------------------------------------------------------------|
B |---7---7/8----7/8-7-------8----8-------------------------1~----|
F#|---3-3-3---3--3---3---5-5-5--5-5--888888-101010101010/12-1~----|
B |---3-3-3---3--3---3---5-5-5--5-5--888888-101010101010/12-1~----|

3:16
C#|----------------------------------------|
G#|----------------------------------------|
E |----------------7-5---------------------|
B |---12/15--7/8---5-5-7-8-10--------------|
F#|---8-/12--3/5---6-6-5-5-8---------------|
B |---8-/12--3/5-------4-5-8--1-00-1-------|
                                ..
C#|-------------------------------------------------------------|
G#|-------------------------------------------------------------|
E |-------------------------------------------------------------|
B |---7-8-10-12-10----------------------------------------------|
F#|---5-5-8--8--8--8---------5----111--------------5---5/6------|
B |---4-5-8--8--8--8---1--11---1------333--11-1-11---1-----11---|
                          ..      ... ...  ..   ..   .     ..

  Some of the hard to hear parts are missing. 

************************************

| /   slide up
| \   slide down
| h   hammer-on
| p   pull-off
| ~   vibrato
| *   harmonic
| x   Mute note
| b   Bend
| pb  Pre-bend
| br  Bend release
| pbr Pre-bend release
| brb Bend release bend

************************************

            
            
Suggest correction
Creating personal tab
Creating personal tab
You can edit any tab online and save it as your Personal.

You can edit, replace or remove any tab part or add personal notes – all changes will be seen only by you.

Personal tabs can be accessed anytime from any device, even offline.
Learn more »
Give kudos to tab author, rate the tab!
1 2 3 4 5
comments
print report bad tab
guest
You may want to rate the tab now too:
select rating
Wanna post a correction for this tab? Suggest correction