Oops, an error
Loading. Please wait.

Divide Paths intro tab

version 1
version 1

Intro

Interactive

1,732 views 1 this week
1 commentread comment
1 2 3 4 5
2 more votes to show rating
add to favorites
×
Save as Personal and add changes to this tab that will be seen only by you. Learn more ›
×
You can save this tab as Personal to edit and correct it or add notes. All changes will be seen only by you. Learn more »
launch autoscroll
font size
0
reset
how to read this tab
guitar tuner
edit
Autoscroll
slow
fast
+/-
esc
set tempo
stop
Title: Divide Paths
Artist: Veil Of Maya
Album: Eclipse
Author: Electric Tits

This is the 100% CORRECT INTRO

C#|-------------------------------|----------------|
G#|-------------------------------|----------------|
 E|---------9h10p9----------------|----------------|
 B|-------7--------7--------------|----------------|
F#|---6-8------------8-7-5-7-8----|-------8h12--0--|
 B|-------------------------------|-0h8h12------0--|

            
            
Suggest correction
Creating personal tab
Creating personal tab
You can edit any tab online and save it as your Personal.

You can edit, replace or remove any tab part or add personal notes – all changes will be seen only by you.

Personal tabs can be accessed anytime from any device, even offline.
Learn more »
Give kudos to tab author, rate the tab!
1 2 3 4 5
comments
print report bad tab
1 comment total.
0 reply
Electric Tits 16 May 23, 2012 07:36 AM

C#|-------------------------------|----------------|
G#|-------------------------------|----------------|
E|---------9h10p9----------------|----------------|
B|-------7--------7--------------|----------8h12--|
F#|---6-8------------8-7-5-7-8----|-----8h12------0|
B|-------------------------------|-8h12----------0|
SORRY MY BAD O: i forgot that last part.
I GOT THIS FROM GUITAR MESSENGER

guest
You may want to rate the tab now too:
select rating
Wanna post a correction for this tab? Suggest correction