Oops, an error
Loading. Please wait.

Resistance Tab

version 1
version 1

Whole song

Interactive

13,301 views 12 this week
2 commentsread comments
1 2 3 4 5
excellent!
x 5
add to favorites
launch autoscroll
font size
0
reset
how to read this tab
guitar tuner
Autoscroll
slow
fast
+/-
esc
set tempo
stop
Help us to improve Ultimate-Guitar.com Take our survey!
×
Contributor
Difficulty
Tuning
intermediate
B F# B E G# C#
Veil of Maya - Resistance
Tabbed by: Anthony D (AlucardXIX)

Video of me playing this: http://www.youtube.com/watch?v=XPgNMUeLFks

This is how I play it, I'm not claiming it's 100% but it's close.

Intro riff/used throughout
--------------------------------------------------------|
--------------------------------------------------------|
-2--2--4--4--5--5--9--9--9--9--9--9--7--7---------------|
--2--2--2--2--2--2--7--7--7--7--7--7--7--7--9-7--9-7----|
---0--0--3--3--3--3--7--7--8--8--8--8--8--8----8----8---|
--------------------------------------------------------|

----------------------------------------------------------|
----------------------------------------------------------|
-5--5--4--4--2--2--0--0---5--5--7--7--9--9----------------|
--7--7--7--7--2--2--2--2---7--7--7--7--7--7--9-7--9-7-----|
---7--7--7--7--3--3--3--3---7--7--8--8--8--8----8----8----|
----------------------------------------------------------|

-------------------------------------------------------------------|
-------------------------------------------------------------------|
-------------------------------------------------------------------|
-------------------------------------------------------------------|
-333-3-333-3-333-3-333-3-000-0-000-0-000-0-000-0-------------------|
-333-3-333-3-333-3-333-3-000-0-000-0-000-0-000-0-------------------|

Yesssss
--------------------------------------------------------------------|
--------------------------------------------------------------------|
-------------------------------9------------------------------------|
----------------9-10-9----------10---12----10-9------9--------------|
-7---------7-10--------10-7-10----10----10------10-7---10-7---------|
---10-7-10----------------------------------------------------------|

----------------------------------------------------------------|
------------------------------------10-12-13-12-10---------10---|
---------------------12---------7-9----------------10-9---9-----|
----------------9-10----10-9----------------------------10------|
-7---------7-10--------------10---------------------------------|
---10-7-10------------------------------------------------------|

--------------------------------------------------------------------|
--------------------------------------------------------------------|
-------------------------------9------------------------------------|
----------------9-10-9----------10---12----10-9------9--------------|
-7---------7-10--------10-7-10----10----10------10-7---10-7---------|
---10-7-10----------------------------------------------------------|

-------------------------------------------------------12----10--------------------------|
------------------------------------10-12-13-12-10------------------12---12/13--13-------|
---------------------12---------7-9----------------10-9--10-9--10-9----9------9----10-9--|
----------------9-10----10-9-------------------------------------------------------------|
-7---------7-10--------------10----------------------------------------------------------|
---10-7-10-------------------------------------------------------------------------------|


Fast pick these notes to the rhythm of the breakdown
----------------------------------------|
----------------------------------------|
---------7------------------------------|
-----5-7--------------------------------|
---5------------------------------------|
-3--------------------------------------|

Next part, same deal, fast picking the rhythm
----------------------------------------|
----------------------------------------|
----------------------------------------|
----------------------------------------|
----------------------------------------|
--7------4------------------------------|


Fill riff
----------------------------------------|
----------------------------------------|
-9-7------------------------------------|
-----0-7-9-7-9--------------------------|
----------------------------------------|
----------------------------------------|

Repeat these 4 bars twice. (not 100%)
----------------------------------------|
----------------------------------------|
-------------9--------------------------|
-10-7--10-7---7--12-7---10-7---9-7------|
-----8-----8---8------8------8-----8----|
----------------------------------------|

----------------------------------------|
----------------------------------------|
---------------9--10---9----------------|
-10-7---12-7----7---7---7--12-7---------|
------8------8---8---8---8------8-------|
----------------------------------------|

----------------------------------------|
----------------------------------------|
---------------9--12--------------------|
-10-7---10-7----7---7--10-7--9-7--------|
------8------8---8---8-----8-----8------|
----------------------------------------|

----------------------------------------|
----------------------------------------|
---------------9--10---9----------------|
-10-7---12-7----7---7---7--12-7---------|
------8------8---8---8---8------8-------|
----------------------------------------|

-------------------------------------------------------------------|
-------------------------------------------------------------------|
-------------------------------------------------------------------|
-------------------------------------------------------------------|
-333-3-333-3-333-3-333-3-000-0-000-0-000-0-000-0-------------------|
-333-3-333-3-333-3-333-3-000-0-000-0-000-0-000-0-------------------|

--------------------------------------------|
--------------------------------------------|
-2--2--4--4--5--5--9--9---------------------|
--2--2--2--2--2--2--7--7--------------------|
---0--0--3--3--3--3--8--8-------------------|
--------------------------------------------|

-------------------------------------------------------------------------------------------------|
-------------------------------------------------------------------------------------------------|
-------------------------------------------------------------------------------------------------|
-------------------------------------------------------------------------------------------------|
-333-3-333-3-333-3-333-3-000-0-000-0-000-0-000-0-333-3-333-3-333-3-333-3--000-0-000-0-222-2-222-2|
-333-3-333-3-333-3-333-3-000-0-000-0-000-0-000-0-333-3-333-3-333-3-333-3--000-0-000-0-222-2-222-2|


--------------------------------------------------------------------|
--------------------------------------------------------------------|
-------------------------------9------------------------------------|
----------------9-10-9----------10---12----10-9------9--------------|
-7---------7-10--------10-7-10----10----10------10-7---10-7---------|
---10-7-10----------------------------------------------------------|

----------------------------------------------------------------|
------------------------------------10-12-13-12-10---------10---|
---------------------12---------7-9----------------10-9---9-----|
----------------9-10----10-9----------------------------10------|
-7---------7-10--------------10---------------------------------|
---10-7-10------------------------------------------------------|

--------------------------------------------------------------------|
--------------------------------------------------------------------|
-------------------------------9------------------------------------|
----------------9-10-9----------10---12----10-9------9--------------|
-7---------7-10--------10-7-10----10----10------10-7---10-7---------|
---10-7-10----------------------------------------------------------|

-------------------------------------------------------12----10--------------------------|
------------------------------------10-12-13-12-10------------------12---12/13--13\------|
---------------------12---------7-9----------------10-9--10-9--10-9----9------9-10\------|
----------------9-10----10-9-------------------------------------------------------------|
-7---------7-10--------------10----------------------------------------------------------|
---10-7-10-------------------------------------------------------------------------------|
comments
print report bad tab
2 comments total.
0 reply
StainBlazed 12 wrote on December 19 2013, 03:57 pm

 fill riff goes

C#-----------------------------|
G#-----------------------------|
E-9-7--------------------------|
B-----7-9-7-9------------------|
F#-----8-----------------------|
B------------------------------|

repeat the following 2X
[palm mute the first 3 chords of each bar, let the last 3 ring]
C#-----------------------------|
G#-----------------------------|
E--------9-----7---5---4-------|
B-10--9---7-----5---5---5------|
F#--7---7---7----3---3---3-----|
B----7---7---------------------|

C#-----------------------------|
G#-----------------------------|
E-5---7---9----10--9---7-------|
B--7---7---7-----7---7---7-----|
F#--8---8---8------5---5---5---|
B------------------------------|

C#-----------------------------|
G#-------9---------------------|
E-10--9---7------12------------|
B--7---7---7------10--10--9----|
F#--7---7--------------10--10--|
B-------------------10--10--10-|

C#-----------------------------|
G#-----------------------------|
E-5--7--9------10--9--7--------|
B--7--7--10------7--7--7-------|
F#--8--8--12------5--5--5------|
B------------------------------|

0 reply
StainBlazed 12 wrote on December 24 2013, 01:23 am, edited at 01:24 am

Woops! the first 3 chords of the second to last bar i posted is meant to be played on 4th 5th and 6th like so..C#--------------------------|G#--------------------------|E--------9---12-------------|B--10--9--7----10--10--9----|F#---7--7--7--------10--10--|B-----7--7-------10--10--10-|

I want to post or [tab]
guest
You may want to rate the tab now too:
select rating
Please do not post tabs as comments. Select "correction" instead!