Oops, an error
Loading. Please wait.

Charging The Void tab

version 1
version 1

Whole song

Interactive

by Vektor
2,617 views 6 this week
7 commentsread comments
1 2 3 4 5
x 6
add to favorites
×
Save as Personal and add changes to this tab that will be seen only by you. Learn more ›
×
You can save this tab as Personal to edit and correct it or add notes. All changes will be seen only by you. Learn more »
launch autoscroll
font size
0
reset
how to read this tab
guitar tuner
edit
Autoscroll
slow
fast
+/-
esc
set tempo
stop
Author
VEKTOR
"Charging the Void"
From the album "Terminal Redux" (2016)

Tuning: F Bb Eb Ab C F (Half-step up from Standard)
Tempo: 200 bpm

   [0:20]
F |----------------|--------|
C |----------------|--------|
Ab|----------------|--------|
Eb|----------------|--------|
Bb|-7-6-6-7-6-6-3--|-(3)----|
F |-5-4-4-5-4-4-1--|-(1)----|


   [0:23]
F |--------------------|----------------------------|--------------------|-----------------|
C |----9-8---8--9----9-|-8--------------------------|----9-8---8--9----9-|-8---------------|
Ab|---10-9---9-10---10-|-9--------------------------|---10-9---9-10---10-|-9---------------|
Eb|---10-9---9-10---10-|-9--------------------------|---10-9---9-10---10-|-9-----------6-5-|
Bb|----8-7---7--8----8-|-7--------------------------|----8-7---7--8----8-|-7-----7-6-7-----|
F |-0------0------0----|---0-0-0--0--0--0-0-0-0-0-0-|-0------0------0----|---8-7-----------|


   [0:33]
F |--------------------|-------------------|---------------------|-----------------------|
C |--------------------|-------------9--9--|---------------------|-----------------------|
Ab|--------------------|------------10-10--|---------------------|-----------------------|
Eb|-9---10-----------9-|---8--------10-10--|-9---10-----------12-|-(12)-10-12-13---------|
Bb|-7----8---7h8p7-----|-------11----8--8--|-7----8---7h8p7---10-|-(10)--8-10-11--10-13--|
F |---0----0-------0---|-0---0----0--------|---0----0-------0----|-----------------8-11--|


   [0:43]
F |---------------------------------|---------------------------------|
C |---------------------------------|---------------------------------|
Ab|---------------------------------|---------------------------------|
Eb|---------------------------------|---------------------------------|
Bb|-5-5-5-5-3-3-3-3-6-6-6-6-3-3-3-3-|-5-5-5-5-3-3-3-3-6---------------|
F |-7-7-7-7-5-5-5-5-8-8-8-8-5-5-5-5-|-7-7-7-7-5-5-5-5-8-8-8-8-8-8-8-8-|


F |---------------------------------|----0-3-2-------------|
C |---------------------------------|--------3-------------|
Ab|---------------------------------|-3------4-4-4-4-4-4-4-|
Eb|---------------------------------|-5--------------------|
Bb|-5-5-5-5-3-3-3-3-6-6-6-6-3-3-3-3-|----------------------|
F |-7-7-7-7-5-5-5-5-8-8-8-8-5-5-5-5-|----------------------|


F |---------------------------------|---------------------------------|
C |---------------------------------|---------------------------------|
Ab|-3-3-3-3-1-1-1-1-4-4-4-4-1-1-1-1-|-3-3-3-3-1-1-1-1-4---------------|
Eb|-5-5-5-5-3-3-3-3-6-6-6-6-3-3-3-3-|-5-5-5-5-3-3-3-3-6-6-6-6-6-6-6-6-|
Bb|---------------------------------|---------------------------------|
F |---------------------------------|---------------------------------|


                                     6/4
F |---------------------------------|-3----------------------|
C |---------------------------------|-4----4-3-----4-3-------|
Ab|-3-3-3-3-1-1-1-1-4-4-4-4-1-1-1-1-|-5--5-----4-5-----4-6\--|
Eb|-5-5-5-5-3-3-3-3-6-6-6-6-3-3-3-3-|------------------------|
Bb|---------------------------------|------------------------|
F |---------------------------------|------------------------|


   [0:53]
   4/4
F |---------------------------------|---------------------------------|-----------------|
C |---------------------------------|---------------------------------|-------9-8-------|
Ab|---------------------------------|---------------------------------|-----9-----9-----|
Eb|---------------------------------|---------------------------------|---9---------9---|
Bb|-7-7-7-7-7-7-7-7-7-7-7-7-7-7-7-7-|-8-8-8-8-8-8-8-8-8-8-8-8-8-8-8-8-|-7---------------|
F |---------------------------------|---------------------------------|-----------------|


   [1:03]
F |---------------------------------|---------------------------------|
C |---------------------------------|---------------------------------|
Ab|---------------------------------|---------------------------------|
Eb|---------------------------------|---------------------------------|
Bb|-5-5-5-5-3-3-3-3-6-6-6-6-3-3-3-3-|-5-5-5-5-3-3-3-3-6---------------|
F |-7-7-7-7-5-5-5-5-8-8-8-8-5-5-5-5-|-7-7-7-7-5-5-5-5-8-8-8-8-8-8-8-8-|


F |---------------------------------|----0-3-2-------------|
C |---------------------------------|--------3-------------|
Ab|---------------------------------|-3------4-4-4-4-4-4-4-|
Eb|---------------------------------|-5--------------------|
Bb|-5-5-5-5-3-3-3-3-6-6-6-6-3-3-3-3-|----------------------|
F |-7-7-7-7-5-5-5-5-8-8-8-8-5-5-5-5-|----------------------|


F |---------------------------------|---------------------------------|
C |---------------------------------|---------------------------------|
Ab|-3-3-3-3-1-1-1-1-4-4-4-4-1-1-1-1-|-3-3-3-3-1-1-1-1-4---------------|
Eb|-5-5-5-5-3-3-3-3-6-6-6-6-3-3-3-3-|-5-5-5-5-3-3-3-3-6-6-6-6-6-6-6-6-|
Bb|---------------------------------|---------------------------------|
F |---------------------------------|---------------------------------|


                                     6/4
F |---------------------------------|-3----------------------|
C |---------------------------------|-4----4-3-----4-3-------|
Ab|-3-3-3-3-1-1-1-1-4-4-4-4-1-1-1-1-|-5--5-----4-5-----4-6\--|
Eb|-5-5-5-5-3-3-3-3-6-6-6-6-3-3-3-3-|------------------------|
Bb|---------------------------------|------------------------|
F |---------------------------------|------------------------|


   [1:14]
   4/4
F |---------------------------------|---------------------------------|-----------------|
C |---------------------------------|---------------------------------|-------9-8-------|
Ab|---------------------------------|---------------------------------|-----9-----9-----|
Eb|---------------------------------|---------------------------------|---9---------9---|
Bb|-7-7-7-7-7-7-7-7-7-7-7-7-7-7-7-7-|-8-8-8-8-8-8-8-8-8-8-8-8-8-8-8-8-|-7---------------|
F |---------------------------------|---------------------------------|-----------------|


   [1:24]
   4/4
F |--------------------|--------------------|
C |-6---------6--6-6-6-|-5---------5--5-5-5-|
Ab|-7---------7--7-7-7-|-6---------6--6-6-6-|
Eb|-7---------7--7-7-7-|-6---------6--6-6-6-|
Bb|-5-5-5-5-5-5--5-5-5-|-4-4-4-4-4-4--4-4-4-|
F |--------------------|--------------------|


   [1:27]
F |---------------------------------|---------------------------------|
C |---------------------------------|---------------------------------|
Ab|---------------------------------|---------------------------------|
Eb|---------------------------------|---------------------------------|
Bb|-5-5-5-5-3-3-3-3-6-6-6-6-3-3-3-3-|-5-5-5-5-3-3-3-3-6---------------|
F |-7-7-7-7-5-5-5-5-8-8-8-8-5-5-5-5-|-7-7-7-7-5-5-5-5-8-8-8-8-8-8-8-8-|


F |---------------------------------|----0-3-2-------------|
C |---------------------------------|--------3-------------|
Ab|---------------------------------|-3------4-4-4-4-4-4-4-|
Eb|---------------------------------|-5--------------------|
Bb|-5-5-5-5-3-3-3-3-6-6-6-6-3-3-3-3-|----------------------|
F |-7-7-7-7-5-5-5-5-8-8-8-8-5-5-5-5-|----------------------|


F |---------------------------------|---------------------------------|
C |---------------------------------|---------------------------------|
Ab|-3-3-3-3-1-1-1-1-4-4-4-4-1-1-1-1-|-3-3-3-3-1-1-1-1-4---------------|
Eb|-5-5-5-5-3-3-3-3-6-6-6-6-3-3-3-3-|-5-5-5-5-3-3-3-3-6-6-6-6-6-6-6-6-|
Bb|---------------------------------|---------------------------------|
F |---------------------------------|---------------------------------|

                                     6/4
F |---------------------------------|-3----------------------|
C |---------------------------------|-4----4-3-----4-3-------|
Ab|-3-3-3-3-1-1-1-1-4-4-4-4-1-1-1-1-|-5--5-----4-5-----4-6\--|
Eb|-5-5-5-5-3-3-3-3-6-6-6-6-3-3-3-3-|------------------------|
Bb|---------------------------------|------------------------|
F |---------------------------------|------------------------|


   [1:37]
F |-------------------------------------------------|--------------------------------------------------|
C |-------------------------------------------------|--------------------------------------------------|
Ab|-15-15-15-15-15-15-12-12-13-13-13-13-12-12-12-12-|-15-15-16-16-15-15-12-12-13-13-13-13-12-12-12-12--|
Eb|-------------------------------------------------|--------------------------------------------------|
Bb|-------------------------------------------------|--------------------------------------------------|
F |-------------------------------------------------|--------------------------------------------------|


F |-------------------16-16-15-15-15-15-------------|-------------------------------------------------|
C |-------------------------------------15-15-15-15-|-18-18-17-17-------17-17-------------------------|
Ab|-16-16-16-16-16-16-------------------------------|-------------18-18-------15-15-15-15-15-15-15-15-|
Eb|-------------------------------------------------|-------------------------------------------------|
Bb|-------------------------------------------------|-------------------------------------------------|
F |-------------------------------------------------|-------------------------------------------------|


F |-------------------------------------------------|-------------------------------------------------|
C |-17-17-17-17-17-17-14-14-15-15-15-15-14-14-14-14-|-17-17-18-18-17-17-14-14-15-15-15-15-14-14-14-14-|
Ab|-------------------------------------------------|-------------------------------------------------|
Eb|-------------------------------------------------|-------------------------------------------------|
Bb|-------------------------------------------------|-------------------------------------------------|
F |-------------------------------------------------|-------------------------------------------------|


F |-16-16-16-16-16-16-21-21-19-19-19-19-21-21-21-21-|-21-21-------19-19-21-21-16-16-16-16-16-16-16-16-|
C |-------------------------------------------------|-------19-19-------------------------------------|
Ab|-------------------------------------------------|-------------------------------------------------|
Eb|-------------------------------------------------|-------------------------------------------------|
Bb|-------------------------------------------------|-------------------------------------------------|
F |-------------------------------------------------|-------------------------------------------------|


   [1:57]
   Gtr II
F |----------------------------|----9-9-----9-9-----8-8-9-9-|
C |----------------------------|-6------9-9-----9-9---------|
Ab|----------------------------|-6--------------------------|
Eb|-8--6-6-5-5-8-8-5-5-6-6-5-5-|-8--------------------------|
Bb|-8--------------------------|----------------------------|
F |-6--------------------------|----------------------------|
  |
  |Gtr I
F |----------------------------|----------------------------|
C |----------------------------|-6--------------------------|
Ab|----------------------------|-6--------------------------|
Eb|-8--------------------------|-8--------------------------|
Bb|-8--------------------------|----------------------------|
F |-6--6-6-6-6-6-6-6-6-6-6-6-6-|----6-6-6-6-6-6-6-6-6-6-6-6-|


F |----------------------------|----8-8-----8-8-----7-7-8-8-|
C |----------------------------|-5------8-8-----8-8---------|
Ab|----------------------------|-5--------------------------|
Eb|-7--5-5-4-4-7-7-4-4-5-5-4-4-|-7--------------------------|
Bb|-7--------------------------|----------------------------|
F |-5--------------------------|----------------------------|
  |
F |----------------------------|----------------------------|
C |----------------------------|-5--------------------------|
Ab|----------------------------|-5--------------------------|
Eb|-7--------------------------|-7--------------------------|
Bb|-7--------------------------|----------------------------|
F |-5--5-5-5-5-5-5-5-5-5-5-5-5-|----5-5-5-5-5-5-5-5-5-5-5-5-|


   [2:06]
F |-3-3-3-3-3-3-3-3-3-3-3-3-3-3-3-3-|-6-6-6-6-6-6-6-6-6-6-6-6-6-6-6-6-|
C |-3-3-3-3-3-3-3-3-3-3-3-3-3-3-3-3-|-8-8-8-8-8-8-8-8-8-8-8-8-8-8-8-8-|
Ab|-3-3-3-3-3-3-3-3-3-3-3-3-3-3-3-3-|-7-7-7-7-7-7-7-7-7-7-7-7-7-7-7-7-|
Eb|-5-5-5-5-5-5-5-5-5-5-5-5-5-5-5-5-|---------------------------------|
Bb|-5-5-5-5-5-5-5-5-5-5-5-5-5-5-5-5-|---------------------------------|
F |-3-3-3-3-3-3-3-3-3-3-3-3-3-3-3-3-|---------------------------------|


   [2:10]
   Gtr II
F |-0-------------|---------------|
C |-0-------------|---------------|
Ab|-9-------------|---------------|
Eb|-9-------------|---------------|
Bb|-7-------------|---------------|
F |-0-------------|---------------|
  |
  |Gtr I
F |---------------|---------------|
C |---------------|---------------|
Ab|---------------|---------------|
Eb|---------------|---------------|
Bb|---------------|---------------|
F |-0-0-0-0---0-0-|-0--0-0-0-0-0--|


   [2:20]
F |----------------|------------|---------------|--------|
C |-9-9-9-8----(8)-|-(8)--------|-9-9-9-11---8--|-(8)----|
Ab|----------------|------------|---------------|--------|
Eb|-6-6-6-5----(5)-|-(5)--------|-6-6-6--8---5--|-(5)----|
Bb|----------------|------------|---------------|--------|
F |----------------|------------|---------------|--------|


F |----------------|------------|--------------|--------------|
C |-9-9-9-8----(8)-|-(8)--------|-12---9---11--|-(11)----8----|
Ab|----------------|------------|--------------|--------------|
Eb|-6-6-6-5----(5)-|-(5)--------|--9---6----8--|--(8)----5----|
Bb|----------------|------------|--------------|--------------|
F |----------------|------------|--------------|--------------|


F |----------------|------------|------------------|----------------|
C |-9-9-9-8----(8)-|-(8)--------|-15-15-15-9---11--|-(11)---9/11----|
Ab|----------------|------------|------------------|----------------|
Eb|-6-6-6-5----(5)-|-(5)--------|-12-12-12-6----8--|--(8)---6//8----|
Bb|----------------|------------|------------------|----------------|
F |----------------|------------|------------------|----------------|


F |-----------0--|-(0)--------|-(0)--------|-(0)----|
C |-9-9-9-8---0--|-(0)--------|-(0)--------|-(0)----|
Ab|--------------|------------|------------|--------|
Eb|-6-6-6-5------|------------|------------|--------|
Bb|--------------|------------|------------|--------|
F |--------------|------------|------------|--------|


   [2:40]
F |-----------------|------------|--------------|--------|
C |-----------------|------------|-9-8-6-9------|--------|
Ab|-10-9-7-9-(9)----|-(9)--------|--------------|--------|
Eb|-----------------|------------|--------------|--------|
Bb|-----------------|------------|--------------|--------|
F |-----------------|------------|-----------6--|-(6)----|


F |-----------------|------------|-------------------|---------|
C |-----------------|------------|-13-12-10-12----9--|--(9)----|
Ab|-10-9-7-9-(9)----|-(9)--------|---------------10--|-(10)----|
Eb|-----------------|------------|---------------10--|-(10)----|
Bb|-----------------|------------|-------------------|---------|
F |-----------------|------------|-------------------|---------|


F |--------------|----------|---------------|------|
C |--------------|----------|---------------|------|
Ab|----10-9----7-|-9--------|----10-9--9-10-|------|
Eb|----------9---|----------|---------------|------|
Bb|--------------|----------|---------------|------|
F |--------------|----------|---------------|-6----|


F |--------------|----------|--------------|-----------------|
C |--------------|----------|-12---9---11--|-(11)--9--11-5---|
Ab|----10-9----7-|-9--------|--------------|-----------------|
Eb|----------9---|----------|--9---6----8--|--(8)--6---8-2---|
Bb|--------------|----------|--------------|-----------------|
F |--------------|----------|--------------|-----------------|


F |----------------|----------------|
C |----------------|----------------|
Ab|----------------|----------------|
Eb|-2-----2-----3--|-(3)------3-3---|
Bb|-2-----2-----3--|-(3)------3-3---|
F |-0-0-0-0-0-0-1--|-(1)--1-1-1-1---|


   [3:02]
F |------------------|-----------------|----------------|------------------------|
C |------------------|-----------------|----------------|---------9--9--9--9--9--|
Ab|------------------|-----------------|--------9-------|--------10-10-10-10-10--|
Eb|-------10-9-----7-|-9---------------|-10-9---9-----9-|-10-----10-10-10-10-10--|
Bb|--------8-7---9-5-|-7---------------|--8-7---------7-|--8-8-8--8--8--8--8--8--|
F |-0-0-0------0-7---|---0-0-0-0-0-0-0-|------0---0-0---|------------------------|


   Gtr II
F |------------------|-----------------|------------------|------------------|
C |------------------|-----------------|-12-----9-----11--|-(11)--9---11-5---|
Ab|------------------|-----------------|------------------|------------------|
Eb|------------------|-----------------|--9-----6------8--|--(8)--6----8-2---|
Bb|------------------|-----------------|------------------|------------------|
F |------------------|-----------------|------------------|------------------|
  |
  |Gtr I
F |------------------|-----------------|------------------|------------------|
C |------------------|-----------------|------------------|------------------|
Ab|------------------|-----------------|------------------|------------------|
Eb|-10-9-7-9-----10--|-9---------------|--2-----2------3--|--(3)-------3-3---|
Bb|--8-7-5-7------8--|-7---------------|--2-----2------3--|--(3)-------3-3---|
F |----------0-0-----|---0-0-0-0-0-0-0-|--0-0-0-0-0-0--1--|--(1)--1-1--1-1---|


   [3:41]
F |----------------|----------------|
C |----------------|----------------|
Ab|----------------|----------------|
Eb|-2-----2-----3--|-(3)------3-3---|
Bb|-2-----2-----3--|-(3)------3-3---|
F |-0-0-0-0-0-0-1--|-(1)--1-1-1-1---|


   [3:43]
F |--------------------|------------------|--------------------|--------------------|
C |--------------------|------------------|--------------------|--------------------|
Ab|--------------------|------------------|--------------------|--------------------|
Eb|-------9---10-9-7-9-|---7-9---10-9-----|-------9---10-9-7---|--------------------|
Bb|-------7----8-7-5-7-|---5-7----8-7-9-8-|-------7----8-7-5-7-|-(7)-8--7--8--------|
F |-0-0-0---0----------|-0-----0------7-6-|-0-0-0---0--------6-|-(6)-7--6--7-0-0-0--|


F |--------------------|------------------|--------------------|-------------6--|
C |--------------------|------------------|--------------------|-------------6--|
Ab|--------------------|------------------|--------------------|----------------|
Eb|-------9---10-9-7-9-|---7-9---10-9-----|-------9---10-9-7---|----------------|
Bb|-------7----8-7-5-7-|---5-7----8-7-9-8-|-------7----8-7-5-7-|-(7)-8--7--8----|
F |-0-0-0---0----------|-0-----0------7-6-|-0-0-0---0--------6-|-(6)-7--6--7----|


   [4:04]
   Gtr II
F |--------------------|-----------------------|----------------------|
C |------------------8-|-(8)-9----8-9-12-11----|--9--9--8--9---9--8---|
Ab|--------------------|-------10-----------10-|-10-10-10-10--10-10---|
Eb|-------9---10-9-7---|-----------------------|----------------------|
Bb|-------7----8-7-5---|-----------------------|----------------------|
F |-0-0-0---0----------|-----------------------|----------------------|
  |
  |Gtr I
F |--------------------|-----------------------|----------------------|
C |--------------------|-----------------------|--9--9--8--9---9--8---|
Ab|--------------------|-----------------------|-10-10-10-10--10-10---|
Eb|-------9---10-9-7-8-|-(8)-9----8-9----------|----------------------|
Bb|-------7----8-7-5---|-------11-----11--8-11-|----------------------|
F |-0-0-0---0----------|-----------------------|----------------------|


   [4:08]
F |---------------------------------|---------------------------------|
C |-4-4-4-4-4-4-4-4-4-4-4-4-7-7-7-7-|-7-7-4-4-4-4-4-4-7-7-7-7-4-4-4-4-|
Ab|-4-4-4-4-4-4-4-4-4-4-4-4-4-4-4-4-|-4-4-4-4-4-4-4-4-4-4-4-4-4-4-4-4-|
Eb|-6-6-6-6-6-6-6-6-6-6-6-6-6-6-6-6-|-6-6-6-6-6-6-6-6-6-6-6-6-6-6-6-6-|
Bb|---------------------------------|---------------------------------|
F |---------------------------------|---------------------------------|


F |---------------------------------|---------------------------------|
C |---------------------------------|---------------------------------|
Ab|-0-0-0-0-0-0-1-1-1-1-1-1-0-0-0-0-|-0-0-1-1-1-1-1-1-0-0-0-0-1-1-1-1-|
Eb|-3-3-3-3-3-3-3-3-3-3-3-3-3-3-3-3-|-3-3-3-3-3-3-3-3-3-3-3-3-3-3-3-3-|
Bb|---------------------------------|---------------------------------|
F |---------------------------------|---------------------------------|


F |---------------------------------|---------------------------------|
C |---------------------------------|---------------------------------|
Ab|-1-1-1-1-1-1-1-1-1-1-1-1-4-4-4-4-|-4-4-1-1-1-1-1-1-4-4-4-4-1-1-1-1-|
Eb|-1-1-1-1-1-1-1-1-1-1-1-1-1-1-1-1-|-1-1-1-1-1-1-1-1-1-1-1-1-1-1-1-1-|
Bb|---------------------------------|---------------------------------|
F |---------------------------------|---------------------------------|


F |---------------------------------|---------------------------------|
C |---------------------------------|---------------------------------|
Ab|-0-0-0-0-0-0-0-0-0-0-0-0-4-4-4-4-|-4-4-0-0-0-0-0-0-4-4-4-4-0-0-0-0-|
Eb|-2-2-2-2-2-2-2-2-2-2-2-2-2-2-2-2-|-2-2-2-2-2-2-2-2-2-2-2-2-2-2-2-2-|
Bb|---------------------------------|---------------------------------|
F |---------------------------------|---------------------------------|


   [4:27]
F |---------------------------------|---------------------------------|
C |---------------------------------|---------------------------------|
Ab|-------------------------4-4-4-4-|-4-4-3-3-3-3-3-3-4-4-4-4-3-3-3-3-|
Eb|-3-3-3-3-3-3-6-6-6-6-6-6---------|---------------------------------|
Bb|---------------------------------|---------------------------------|
F |---------------------------------|---------------------------------|


F |---------------------------------|---------------------------------|
C |---------------------------------|---------------------------------|
Ab|-4-4-4-4-4-4-4-4-4-4-4-4-4-4-4-4-|-4-4-4-4-4-4-4-4-4-4-4-4-4-4-4-4-|
Eb|-6-6-6-6-6-6-6-6-6-6-6-6-6-6-6-6-|-6-6-6-6-6-6-6-6-6-6-6-6-6-6-6-6-|
Bb|---------------------------------|---------------------------------|
F |---------------------------------|---------------------------------|


F |---------------------------------|---------------------------------|
C |---------------------------------|---------------------------------|
Ab|-------------------------4-4-4-4-|-4-4-3-3-3-3-3-3-4-4-4-4-3-3-3-3-|
Eb|-3-3-3-3-3-3-6-6-6-6-6-6---------|---------------------------------|
Bb|---------------------------------|---------------------------------|
F |---------------------------------|---------------------------------|


F |---------------------------------|---------------------------------|
C |---------------------------------|---------------------------------|
Ab|-0-0-0-0-0-0-1-1-1-1-1-1-0-0-0-0-|-0-0-1-1-1-1-1-1-0-0-0-0-1-1-1-1-|
Eb|-3-3-3-3-3-3-3-3-3-3-3-3-3-3-3-3-|-3-3-3-3-3-3-3-3-3-3-3-3-3-3-3-3-|
Bb|---------------------------------|---------------------------------|
F |---------------------------------|---------------------------------|


F |---------------------------------|---------------------------------|
C |---------------------------------|---------------------------------|
Ab|-------------------------4-4-4-4-|-4-4-3-3-3-3-3-3-4-4-4-4-3-3-3-3-|
Eb|-3-3-3-3-3-3-6-6-6-6-6-6---------|---------------------------------|
Bb|---------------------------------|---------------------------------|
F |---------------------------------|---------------------------------|


   [4:44]
F |-----------------|-----------------|-----------------|-----------------|
C |-2-2-2-2-2-2-2-2-|-2-2-2-2-2-2-2-2-|-5-5-5-5-5-5-5-5-|-5-5-5-5-5-5-5-5-|
Ab|-4-4-4-4-4-4-4-4-|-4-4-4-4-4-4-4-4-|-7-7-7-7-7-7-7-7-|-7-7-7-7-7-7-7-7-|
Eb|-4-4-4-4-4-4-4-4-|-4-4-4-4-4-4-4-4-|-7-7-7-7-7-7-7-7-|-7-7-7-7-7-7-7-7-|
Bb|-2-2-2-2-2-2-2-2-|-2-2-2-2-2-2-2-2-|-5-5-5-5-5-5-5-5-|-5-5-5-5-5-5-5-5-|
F |-----------------|-----------------|-----------------|-----------------|


F |-----------------|-----------------|
C |-7-7-7-7-7-7-7-7-|-7-7-7-7-7-7-7-7-|
Ab|-9-9-9-9-9-9-9-9-|-9-9-9-9-9-9-9-9-|
Eb|-9-9-9-9-9-9-9-9-|-9-9-9-9-9-9-9-9-|
Bb|-7-7-7-7-7-7-7-7-|-7-7-7-7-7-7-7-7-|
F |-----------------|-----------------|


   [4:51]
   Gtr II
F |-0-------------|---------------|---------------|---------------|
C |-0-------------|---------------|---------------|---------------|
Ab|-9-------------|---------------|---------------|---------------|
Eb|-9-------------|---------------|---------------|---------------|
Bb|-7-------------|---------------|---------------|---------------|
F |-0-------------|---------------|---------------|---------------|
  |
  |Gtr I
F |---------------|---------------|---------------|---------------|
C |---------------|---------------|---------------|---------------|
Ab|---------------|---------------|---------------|---------------|
Eb|---------------|---------------|---------------|---------------|
Bb|---------------|---------------|---------------|---------------|
F |-0-0-0-0---0-0-|-0--0-0-0-0-0--|-0-0-0-0---0-0-|-0--0-0-0-0-0--|


F |-0-------------|---------------|---------------|---------------|
C |-0-------------|-7-------------|-5-------------|---------------|
Ab|-9-------------|---------------|-4-------------|---------------|
Eb|-9-------------|---------------|---------------|-4-------------|
Bb|-7-------------|---------------|-5-------------|---------------|
F |-0-------------|---------------|---------------|---------------|
  |
F |---------------|---------------|---------------|---------------|
C |---------------|---------------|---------------|---------------|
Ab|---------------|---------------|---------------|---------------|
Eb|---------------|---------------|---------------|---------------|
Bb|---------------|---------------|---------------|---------------|
F |-0-0-0-0---0-0-|-0--0-0-0-0-0--|-0-0-0-0---0-0-|-0--0-0-0-0-0--|


   [5:26]
F |----------------|------------------|------------------|------------------|
C |----------------|------------------|------------------|------------------|
Ab|----------------|------------------|------------------|--------12--------|
Eb|-----7-9------8-|-12-----12-----8--|----------------8-|-10--10-----8-10--|
Bb|-7-7-------10---|-----10-----10----|------8-10---10---|------------------|
F |----------------|------------------|-8-10-------------|------------------|


   [5:46]
F |-------------------------------------------------|-------------------------|
C |-------------------------------------------------|-------------------------|
Ab|-12-12-12-12-12-12-17-17-16-16-16-16-12-12-12-12-|-17-15-12-17-15-12-17-15-|
Eb|-------------------------------------------------|-------------------------|
Bb|-------------------------------------------------|-------------------------|
F |-------------------------------------------------|-------------------------|
  |
F |-------------------------------------------------|-------------------------|
C |-------------------------------------------------|-------------------------|
Ab|--9-----9-----9-----9-----9-----9-----9-----9----|-12-12-12-12-12-12-12-12-|
Eb|--9-----9-----9-----9-----9-----9-----9-----9----|-12-12-12-12-12-12-12-12-|
Bb|--7-----7-----7-----7-----7-----7-----7-----7----|-10-10-10-10-10-10-10-10-|
F |-------------------------------------------------|-------------------------|


F |-------------------------------------------------|-------------------------|
C |-13-13-13-13-13-13-18-18-17-17-17-17-13-13-13-13-|-17-15-20-17-15-20-17-20-|
Ab|-------------------------------------------------|-------------------------|
Eb|-------------------------------------------------|-------------------------|
Bb|-------------------------------------------------|-------------------------|
F |-------------------------------------------------|-------------------------|
  |
F |-------------------------------------------------|-------------------------|
C |-------------------------------------------------|-------------------------|
Ab|-------------------------------------------------|-10-10-10-10-10-10-10-10-|
Eb|-10----10----10----10----10----10----10----10----|-10-10-10-10-10-10-10-10-|
Bb|-10----10----10----10----10----10----10----10----|--8--8--8--8--8--8--8--8-|
F |--8-----8-----8-----8-----8-----8-----8-----8----|-------------------------|


   [6:04]
F |----------------|---------------------|
C |----------------|---------------------|
Ab|-9--9--9-9-9-12-|-(12)--12--12-12-12--|
Eb|-9--9--9-9-9-12-|-(12)--12--12-12-12--|
Bb|-7--7--7-7-7-10-|-(10)--10--10-10-10--|
F |----------------|---------------------|


F |---------------------|---------------------|
C |---------------------|---------------------|
Ab|------------------10-|-(10)--10--10-10-10--|
Eb|-10--10--10-10-10-10-|-(10)--10--10-10-10--|
Bb|-10--10--10-10-10--8-|--(8)---8---8--8--8--|
F |--8---8---8--8--8----|---------------------|


   [6:23]
F |-------------|-----------------|--------------|------------------|
C |-------------|-----------------|--------------|------------------|
Ab|-8---9-------|--------------9--|------9---11--|-(11)---------11--|
Eb|-------------|-----------------|--------------|------9-----------|
Bb|---------11--|-(11)-9---11-----|-12-----------|----------12------|
F |-------------|-----------------|--------------|------------------|


F |-11---12-------|---------------12--|------12---14--|-(14)----------14--|
C |---------------|-------------------|---------------|------12-----------|
Ab|-----------13--|-(13)-11---13------|-14------------|-----------14------|
Eb|---------------|-------------------|---------------|-------------------|
Bb|---------------|-------------------|---------------|-------------------|
F |---------------|-------------------|---------------|-------------------|


   [6:42]
F |-11-11-11-11-11-11-12-12-12-12-12-12-------------|
C |-------------------------------------11-11-11-11-|
Ab|-------------------------------------------------|
Eb|-------------------------------------------------|
Bb|-------------------------------------------------|
F |-------------------------------------------------|


F |-------------------------------------------------|
C |-11-11-12-12-12-12-12-12-------------------------|
Ab|-------------------------11-11-11-11-13-13-13-13-|
Eb|-------------------------------------------------|
Bb|-------------------------------------------------|
F |-------------------------------------------------|


   [6:52]
F |---------------------------------|-----------------------------------|
C |---------------------------------|-----------------------------------|
Ab|-9-9-9-9-9-9-9-9-9-9-9-9-9-9-9-9-|-9-9-9-9-9-9-9-9-9-9-9-9-9-9-9-9---|
Eb|---------------------------------|-----------------------------------|
Bb|-7-7-7-7-7-7-7-7-7-7-7-7-7-7-7-7-|-7-7-7-7-7-7-7-7-7-7-7-7-7-7-7-7---|
F |---------------------------------|-----------------------------------|


F |-------------------------------------------------|---------------------------------------------------|
C |-------------------------------------------------|---------------------------------------------------|
Ab|-13-13-13-13-13-13-13-13-13-13-13-13-11-11-11-11-|-11-11-11-11-11-11-11-11-11-11-11-11-11-11-11-11---|
Eb|-------------------------------------------------|---------------------------------------------------|
Bb|-11-11-11-11-11-11-11-11-11-11-11-11--9--9--9--9-|--9--9--9--9--9--9--9--9--9--9--9--9--9--9--9--9---|
F |-------------------------------------------------|---------------------------------------------------|


F |-------------------------------------------------|---------------------------------------------------|
C |-------------------------------------16-16-16-16-|-16-16-16-16-16-16-16-16-16-16-16-16-16-16-16-16---|
Ab|-14-14-14-14-14-14-14-14-14-14-14-14-14-14-14-14-|-14-14-14-14-14-14-14-14-14-14-14-14-14-14-14-14---|
Eb|-16-16-16-16-16-16-16-16-16-16-16-16-16-16-16-16-|-16-16-16-16-16-16-16-16-16-16-16-16-16-16-16-16---|
Bb|-------------------------------------------------|---------------------------------------------------|
F |-------------------------------------------------|---------------------------------------------------|


F |-------------------------------------------------|-------------------------------------------------|
C |-17-17-17-17-17-17-15-15-15-15-15-15-17-17-17-17-|-17-17-15-15-15-15-15-15-17-17-17-17-15-15-15-15-|
Ab|-------------------------------------------------|-------------------------------------------------|
Eb|-------------------------------------------------|-------------------------------------------------|
Bb|-------------------------------------------------|-------------------------------------------------|
F |-------------------------------------------------|-------------------------------------------------|


   [7:01]
F |---------------------------------|---------------------------------|
C |---------------------------------|---------------------------------|
Ab|-9-9-9-9-9-9-9-9-9-9-9-9-9-9-9-9-|-9-9-9-9-9-9-9-9-9-9-9-9-9-9-9-9-|
Eb|-9-9-9-9-9-9-9-9-9-9-9-9-9-9-9-9-|-9-9-9-9-9-9-9-9-9-9-9-9-9-9-9-9-|
Bb|-7-7-7-7-7-7-7-7-7-7-7-7-7-7-7-7-|-7-7-7-7-7-7-7-7-7-7-7-7-7-7-7-7-|
F |-0-0-0-0-0-0-0-0-0-0-0-0-0-0-0-0-|-0-0-0-0-0-0-0-0-0-0-0-0-0-0-0-0-|


F |---------------------------------|---------------------------------|
C |-5-5-5-5-5-5-5-5-5-5-5-5-5-5-5-5-|---------------------------------|
Ab|-6-6-6-6-6-6-6-6-6-6-6-6-6-6-6-6-|-1-1-1-1-1-1-1-1-1-1-1-1-1-1-1-1-|
Eb|-6-6-6-6-6-6-6-6-6-6-6-6-6-6-6-6-|-2-2-2-2-2-2-2-2-2-2-2-2-2-2-2-2-|
Bb|-4-4-4-4-4-4-4-4-4-4-4-4-4-4-4-4-|-3-3-3-3-3-3-3-3-3-3-3-3-3-3-3-3-|
F |---------------------------------|---------------------------------|


   [7:30]
F |-------------------------------------------------|-------------------------------------------------|
C |-10-10-10-10-10-10-10-10-10-10-10-10-10-10-10-10-|-12-12-12-12-12-12-12-12-12-12-12-12-12-12-12-12-|
Ab|--9--9--9--9--9--9--9--9--9--9--9--9--9--9--9--9-|-11-11-11-11-11-11-11-11-11-11-11-11-11-11-11-11-|
Eb|--7--7--7--7--7--7--7--7--7--7--7--7--7--7--7--7-|--9--9--9--9--9--9--9--9--9--9--9--9--9--9--9--9-|
Bb|--0--0--0--0--0--0--0--0--0--0--0--0--0--0--0--0-|-------------------------------------------------|
F |-------------------------------------------------|-------------------------------------------------|


   [7:48]
F |----------------------|---------------------|--------------------------|------------------------|
C |----------------------|---------------------|--------------------------|------------------------|
Ab|------------13-----13-|--------13--------13-|-11-------11-------11-----|----9-------11---13-14--|
Eb|-------14---14-----14-|---14---14-----14----|-10-------10-------10-----|---10-------10----------|
Bb|-------14-------------|---14----------------|-10-----------------------|------------------------|
F |-0-0-0----0----0-0----|-0----0----0-0-------|----0-0-0----0-0-0----0-0-|-0----0-0-0----0--------|


F |----------------------|---------------------|-------------------------|-----------------------|
C |----------------------|---------------------|-------------------------|-----------------------|
Ab|------------13-----13-|--------13--------13-|-11--------9-------11-14-|----9-------11---13-14-|
Eb|-------14---14-----14-|---14---14-----14----|-10-------10-------------|---10-------10---------|
Bb|-------14-------------|---14----------------|-10----------------------|-----------------------|
F |-0-0-0----0----0-0----|-0----0----0-0-------|----0-0-0----0-0-0-------|-0----0-0-0----0-------|


   [8:22]
F |-------------|-----------------|--------------|------------------|
C |-------------|-----------------|--------------|------------------|
Ab|-8---9-------|--------------9--|------9---11--|-(11)---------11--|
Eb|-------------|-----------------|--------------|------9-----------|
Bb|---------11--|-(11)-9---11-----|-12-----------|----------12------|
F |-------------|-----------------|--------------|------------------|


F |-11---12-------|---------------12--|------12---14--|-(14)----------14--|
C |---------------|-------------------|---------------|------12-----------|
Ab|-----------13--|-(13)-11---13------|-14------------|-----------14------|
Eb|---------------|-------------------|---------------|-------------------|
Bb|---------------|-------------------|---------------|-------------------|
F |---------------|-------------------|---------------|-------------------|


   [8:41]
F |---------------------------------|-----------------------------------|
C |---------------------------------|-----------------------------------|
Ab|-9-9-9-9-9-9-9-9-9-9-9-9-9-9-9-9-|-9-9-9-9-9-9-9-9-9-9-9-9-9-9-9-9---|
Eb|---------------------------------|-----------------------------------|
Bb|-7-7-7-7-7-7-7-7-7-7-7-7-7-7-7-7-|-7-7-7-7-7-7-7-7-7-7-7-7-7-7-7-7---|
F |---------------------------------|-----------------------------------|


F |-------------------------------------------------|
C |-------------------------------------------------|
Ab|-13-13-13-13-13-13-13-13-13-13-13-13-11-11-11-11-|
Eb|-------------------------------------------------|
Bb|-11-11-11-11-11-11-11-11-11-11-11-11--9--9--9--9-|
F |-------------------------------------------------|


F |---------------------------------------------------|
C |---------------------------------------------------|
Ab|-11-11-11-11-11-11-11-11-11-11-11-11-11-11-11-11---|
Eb|---------------------------------------------------|
Bb|--9--9--9--9--9--9--9--9--9--9--9--9--9--9--9--9---|
F |---------------------------------------------------|


F |-------------------------------------------------|
C |-------------------------------------16-16-16-16-|
Ab|-14-14-14-14-14-14-14-14-14-14-14-14-14-14-14-14-|
Eb|-16-16-16-16-16-16-16-16-16-16-16-16-16-16-16-16-|
Bb|-------------------------------------------------|
F |-------------------------------------------------|


F |-------------------------------------------------|
C |-16-16-16-16-16-16-16-16-16-16-16-16-16-16-16-16-|
Ab|-14-14-14-14-14-14-14-14-14-14-14-14-14-14-14-14-|
Eb|-16-16-16-16-16-16-16-16-16-16-16-16-16-16-16-16-|
Bb|-------------------------------------------------|
F |-------------------------------------------------|


F |-------------------------------------------------|
C |-17-17-17-17-17-17-15-15-15-15-15-15-17-17-17-17-|
Ab|-------------------------------------------------|
Eb|-------------------------------------------------|
Bb|-------------------------------------------------|
F |-------------------------------------------------|


F |-------19-19-19-19-19-19-19-19-19-19-19-19-19-19-|
C |-17-17-------------------------------------------|
Ab|-------------------------------------------------|
Eb|-------------------------------------------------|
Bb|-------------------------------------------------|
F |-------------------------------------------------|


F |-----------0-----|
C |-----------0-----|
Ab|-----------9-----|
Eb|-----------9-----|
Bb|-----------7-----|
F |-0-0-0-0---0-----|


***********************************
|(n)  Ghost note
| /   Slide up
| \   Slide down
| h   Hummer-on
| p   Pull-off
*********************************** 

            
            
Suggest correction
Creating personal tab
Creating personal tab
You can edit any tab online and save it as your Personal.

You can edit, replace or remove any tab part or add personal notes – all changes will be seen only by you.

Personal tabs can be accessed anytime from any device, even offline.
Learn more »
comments
print report bad tab
7 comments total. Showing first comments.
0 reply
sashki 2,873 Apr 11, 2016 01:52 AM

There are many parts I am not sure of so corrections are welcome

0 reply
robertczaja20 491 Apr 12, 2016 08:23 AM, edited on April 19 2016, 04:17 am

Nice try - I have something about 60%-70% of the song in Guitar Pro. I play some part in slightly different ways.

0 reply
harry_thedistroyer 174 Mar 03, 2017 06:00 PM, edited at 11:01 pm

Last chord sounds like
--------------------------0-------------------------------
--------------------------0-------------------------------
--------------------------9-------------------------------
--------------------------8-------------------------------
--------------------------7-------------------------------
--------------------------0-------------------------------
The song sometimes jumps in the lydian mode, so it makes sense

guest
You may want to rate the tab now too:
select rating
Wanna post a correction for this tab? Suggest correction