Oops, an error
Loading. Please wait.

Collapse Tab

292 views 6 this week
3 commentsread comments
1 2 3 4 5
x 3
add to favorites
launch autoscroll
font size
0
reset
how to read this tab
guitar tuner
Autoscroll
slow
fast
+/-
esc
set tempo
stop
Help us to improve Ultimate-Guitar.com Take our survey!
×
Author
Difficulty
sashki [tm] 2,364
intermediate
VEKTOR
"Collapse"
From the album "Terminal Redux" (2016)

Tuning: F Bb Eb Ab C F (Half-step up from Standard)


[0:00 Intro]
     Tempo = 104 bpm
     Gtr I
F ||-7------------------|---7----7--------|-7------------------|------------------|
C ||---10-8-7h8p7-------|-8---10---8-7-8--|---10---7h8p7-------|-8-----5----------|
Ab||--------------7-9---|-----------------|--------------7-9-7-|-9-----7----------|
Eb||--------------------|-----------------|--------------------|------------------|
Bb||--------------------|-----------------|--------------------|------------------|
F ||--------------------|-----------------|--------------------|------------------|
   |
   | Gtr II
F ||--------------------|-----------------|--------------------|------------------|
C ||--------------------|-----------------|--------------------|------------------|
Ab||------0-------0---0-|------0---0---0--|--------0-------0---|-----0---0---0----|
Eb||--------------------|---4----4--------|------4-----4-----4-|---2-------4------|
Bb||----7-------7-------|-5----------5----|----5---------5-----|-3-----5----------|
F ||-0------0-------0---|-----------------|-7------------------|------------------|


F |-----------------|----------14h15p14----------|-------------------------|-------0--------||
C |-----1-----1---1-|-------15----------15----15-|-------10-12-10----12-10-|---------3------||
Ab|---0-----0-------|----16----------------16----|----12----------12-------|-5-----------0--||
Eb|-2-----2-----2---|-17-------------------------|-10----------------------|-----------4----|| x2
Bb|-----------------|----------------------------|-------------------------|----------------||
F |-----------------|----------------------------|-------------------------|----------------||
  |
F |-----------------|----------------------------|-------------------------|----------------||
C |-----------------|----------------------------|-------------------------|----------------||
Ab|-----0-----0---0-|-----------0--------0-----0-|-----------0--------0----|-------0-----0--||
Eb|-----------------|--------4--------------4----|-----2--------2--------2-|---4-----4------|| x2
Bb|---7-----7-------|-----5----------------------|--3-----3--------3-------|-5---5-----5----||
F |-0-----0-----0---|--3-------------------------|-------------------------|----------------||



[0:37 Verse] We don't belong at these heights...

F |-19----19-17-------15-17-|-19----19-17-------15-17-|
C |----17-------17----------|----17-------17----------|
Ab|----------------16-------|----------------16-------|
Eb|-------------------------|-------------------------|
Bb|-------------------------|-------------------------|
F |-------------------------|-------------------------|
  |
F |--------0--0-----0--0--0-|--------0--0-----0--0--0-|
C |--------0--0-----0--0--0-|--------0--0-----0--0--0-|
Ab|--0-----0--0-----0--0--0-|--0-----0--0-----0--0--0-|
Eb|--2-----2--2-----2--2--2-|--2-----2--2-----2--2--2-|
Bb|--2-----2--2-----2--2--2-|--2-----2--2-----2--2--2-|
F |--0-----0--0-----0--0--0-|--0-----0--0-----0--0--0-|


F |-14----14-15----15-17----|-14----14-15----15-17-----|
C |----15-------15-------15-|----15-------15-------15--|
Ab|-------------------------|--------------------------|
Eb|-------------------------|--------------------------|
Bb|-------------------------|--------------------------|
F |-------------------------|--------------------------|
  |
F |--2--2--2--3--3--3--5--5-|--2--2--2--3--3--3--5--5--|
C |--3--3--3--3--3--3--3--3-|--3--3--3--3--3--3--3--3--|
Ab|--0--0--0--0--0--0--0--0-|--0--0--0--0--0--0--0--0--|
Eb|--0--0--0--0--0--0--0--0-|--0--0--0--0--0--0--0--0--|
Bb|-------------------------|--------------------------|
F |-------------------------|--------------------------|


F |-19----19-17-------------|-19----19-17-------------|
C |----17-------17-------20-|----17-------17-------20-|
Ab|----------------17-19----|----------------17-19----|
Eb|-------------------------|-------------------------|
Bb|-------------------------|-------------------------|
F |-------------------------|-------------------------|
  |
F |--------0--0-----0--0--0-|--------0--0-----0--0--0-|
C |--1-----1--1-----1--1--1-|--1-----1--1-----1--1--1-|
Ab|--2-----2--0-----2--2--2-|--2-----2--0-----2--2--2-|
Eb|--2-----2--2-----2--2--2-|--2-----2--2-----2--2--2-|
Bb|--0-----0--0-----0--0--0-|--0-----0--0-----0--0--0-|
F |-------------------------|-------------------------|


F |-15-------15----------17-|--15--------15----------17--|
C |----19-------19----15----|------19-------19----15-----|
Ab|-------17-------16-------|---------17-------16--------|
Eb|-------------------------|----------------------------|
Bb|-------------------------|----------------------------|
F |-------------------------|----------------------------|
  |
F |-------------------------|----------------------------|
C |--8--8-----7-----8----10-|-(10)--8-----7-----0--0--0--|
Ab|--9--9-----9-----9-----9-|---9---9-----9-----9--9--9--|
Eb|-10-10----10----10----10-|--10--10----10----10-10-10--|
Bb|-------------------------|----------------------------|
F |-------------------------|----------------------------|


[0:58 Chorus] Collapse under the weight of time...

F |----0-0--0-0-0-|---------------|----0-0--0-0-0-|----------------|
C |----0-0--0-0-0-|-3--3-3--3-3-3-|----0-0--0-0-0-|-0-0--3--3-3-3--|
Ab|-0--0-0--0-0-0-|-2--2-2--2-2-2-|-0--0-0--0-0-0-|-0-0--2--2-2-2--|
Eb|-2--2-2--2-2-2-|-0--0-0--0-0-0-|-2--2-2--2-2-2-|-2-2--0--0-0-0--|
Bb|-2--2-2--2-2-2-|---------------|-2--2-2--2-2-2-|-3-3------------|
F |-0--0-0--0-0-0-|---------------|-0--0-0--0-0-0-|----------------|


F |----0-0--0-0-0-|---------------|-----------------|------------------|
C |----0-0--0-0-0-|-3--3-3--3-3-3-|-0-0-0-0-0-0-0-0-|-3-3-3-3-3-3-3-3--|
Ab|-0--0-0--0-0-0-|-2--2-2--2-2-2-|-0-0-0-0-0-0-0-0-|-2-2-2-2-2-2-2-2--|
Eb|-2--2-2--2-2-2-|-0--0-0--0-0-0-|-2-2-2-2-2-2-2-2-|-0-0-0-0-0-0-0-0--|
Bb|-2--2-2--2-2-2-|---------------|-3-3-3-3-3-3-3-3-|------------------|
F |-0--0-0--0-0-0-|---------------|-----------------|------------------|


[1:15] A broken image reflects...

F ||------------15----------|------------15----------|------------8---------|-----------8----------||
C ||------13----------13----|------13----------13----|-------8---------8----|------8---------8-----||
Ab||---16----16----16----16-|---16----16----16----16-|----11---11---11---11-|---11---11---11---11--||
Eb||------------------------|------------------------|----------------------|----------------------|| x2
Bb||-0----------------------|-0----------------------|-10-------------------|-9--------------------||
F ||------------------------|------------------------|----------------------|----------------------||


[1:34]

F |---------------------|---------------------|---------2-------|---------0--------|
C |-----------8---------|-----------8---------|-----0-----0-----|-----4-----4------|
Ab|------11-----11------|------11-----11------|-------0-----0---|---4---4-----4----|
Eb|----9----9------9----|----9----9------9----|---0-----------0-|---------------4--|
Bb|-10---------------10-|-10---------------10-|-2---------------|-2----------------|
F |---------------------|---------------------|-----------------|------------------|


[1:43 Intro]
    Gtr I
F |-7------------------|---7----7--------|-7------------------|------------------|
C |---10-8-7h8p7-------|-8---10---8-7-8--|---10---7h8p7-------|-8-----5----------|
Ab|--------------7-9---|-----------------|--------------7-9-7-|-9-----7----------|
Eb|--------------------|-----------------|--------------------|------------------|
Bb|--------------------|-----------------|--------------------|------------------|
F |--------------------|-----------------|--------------------|------------------|
  |
  | Gtr II
F |--------------------|-----------------|--------------------|------------------|
C |--------------------|-----------------|--------------------|------------------|
Ab|------0-------0---0-|------0---0---0--|--------0-------0---|-----0---0---0----|
Eb|--------------------|---4----4--------|------4-----4-----4-|---2-------4------|
Bb|----7-------7-------|-5----------5----|----5---------5-----|-3-----5----------|
F |-0------0-------0---|-----------------|-7------------------|------------------|


F |-----------------|----------14h15p14----------|-------------------------|-------0--------|
C |-----1-----1---1-|-------15----------15----15-|-------10-12-10----12-10-|---------3------|
Ab|---0-----0-------|----16----------------16----|----12----------12-------|-5-----------0--|
Eb|-2-----2-----2---|-17-------------------------|-10----------------------|-----------4----|
Bb|-----------------|----------------------------|-------------------------|----------------|
F |-----------------|----------------------------|-------------------------|----------------|
  |
F |-----------------|----------------------------|-------------------------|----------------|
C |-----------------|----------------------------|-------------------------|----------------|
Ab|-----0-----0---0-|-----------0--------0-----0-|-----------0--------0----|-------0-----0--|
Eb|-----------------|--------4--------------4----|-----2--------2--------2-|---4-----4------|
Bb|---7-----7-------|-----5----------------------|--3-----3--------3-------|-5---5-----5----|
F |-0-----0-----0---|--3-------------------------|-------------------------|----------------|


[2:02 Verse] A tearful dawn sheds light on what we have become...

F |-19----19-17-------15-17-|-19----19-17-------15-17-|
C |----17-------17----------|----17-------17----------|
Ab|----------------16-------|----------------16-------|
Eb|-------------------------|-------------------------|
Bb|-------------------------|-------------------------|
F |-------------------------|-------------------------|
  |
F |--------0--0-----0--0--0-|--------0--0-----0--0--0-|
C |--------0--0-----0--0--0-|--------0--0-----0--0--0-|
Ab|--0-----0--0-----0--0--0-|--0-----0--0-----0--0--0-|
Eb|--2-----2--2-----2--2--2-|--2-----2--2-----2--2--2-|
Bb|--2-----2--2-----2--2--2-|--2-----2--2-----2--2--2-|
F |--0-----0--0-----0--0--0-|--0-----0--0-----0--0--0-|


F |-14----14-15----15-17----|-14----14-15----15-17-----|
C |----15-------15-------15-|----15-------15-------15--|
Ab|-------------------------|--------------------------|
Eb|-------------------------|--------------------------|
Bb|-------------------------|--------------------------|
F |-------------------------|--------------------------|
  |
F |--2--2--2--3--3--3--5--5-|--2--2--2--3--3--3--5--5--|
C |--3--3--3--3--3--3--3--3-|--3--3--3--3--3--3--3--3--|
Ab|--0--0--0--0--0--0--0--0-|--0--0--0--0--0--0--0--0--|
Eb|--0--0--0--0--0--0--0--0-|--0--0--0--0--0--0--0--0--|
Bb|-------------------------|--------------------------|
F |-------------------------|--------------------------|


F |-19----19-17-------------|-19----19-17-------------|
C |----17-------17-------20-|----17-------17-------20-|
Ab|----------------17-19----|----------------17-19----|
Eb|-------------------------|-------------------------|
Bb|-------------------------|-------------------------|
F |-------------------------|-------------------------|
  |
F |--------0--0-----0--0--0-|--------0--0-----0--0--0-|
C |--1-----1--1-----1--1--1-|--1-----1--1-----1--1--1-|
Ab|--2-----2--0-----2--2--2-|--2-----2--0-----2--2--2-|
Eb|--2-----2--2-----2--2--2-|--2-----2--2-----2--2--2-|
Bb|--0-----0--0-----0--0--0-|--0-----0--0-----0--0--0-|
F |-------------------------|-------------------------|


F |-15-------15----------17-|--15--------15----------17--|
C |----19-------19----15----|------19-------19----15-----|
Ab|-------17-------16-------|---------17-------16--------|
Eb|-------------------------|----------------------------|
Bb|-------------------------|----------------------------|
F |-------------------------|----------------------------|
  |
F |-------------------------|----------------------------|
C |--8--8-----7-----8----10-|-(10)--8-----7-----0--0--0--|
Ab|--9--9-----9-----9-----9-|---9---9-----9-----9--9--9--|
Eb|-10-10----10----10----10-|--10--10----10----10-10-10--|
Bb|-------------------------|----------------------------|
F |-------------------------|----------------------------|


[2:22 Chorus] Collapse under the weight of time...

F |----0-0--0-0-0-|---------------|----0-0--0-0-0-|----------------|
C |----0-0--0-0-0-|-3--3-3--3-3-3-|----0-0--0-0-0-|-0-0--3--3-3-3--|
Ab|-0--0-0--0-0-0-|-2--2-2--2-2-2-|-0--0-0--0-0-0-|-0-0--2--2-2-2--|
Eb|-2--2-2--2-2-2-|-0--0-0--0-0-0-|-2--2-2--2-2-2-|-2-2--0--0-0-0--|
Bb|-2--2-2--2-2-2-|---------------|-2--2-2--2-2-2-|-3-3------------|
F |-0--0-0--0-0-0-|---------------|-0--0-0--0-0-0-|----------------|


F |----0-0--0-0-0-|---------------|-----------------|------------------|
C |----0-0--0-0-0-|-3--3-3--3-3-3-|-0-0-0-0-0-0-0-0-|-3-3-3-3-3-3-3-3--|
Ab|-0--0-0--0-0-0-|-2--2-2--2-2-2-|-0-0-0-0-0-0-0-0-|-2-2-2-2-2-2-2-2--|
Eb|-2--2-2--2-2-2-|-0--0-0--0-0-0-|-2-2-2-2-2-2-2-2-|-0-0-0-0-0-0-0-0--|
Bb|-2--2-2--2-2-2-|---------------|-3-3-3-3-3-3-3-3-|------------------|
F |-0--0-0--0-0-0-|---------------|-----------------|------------------|


[2:40] A broken image reflects...

F |------------15----------|------------15----------|------------8---------|-----------8----------|
C |------13----------13----|------13----------13----|-------8---------8----|------8---------8-----|
Ab|---16----16----16----16-|---16----16----16----16-|----11---11---11---11-|---11---11---11---11--|
Eb|------------------------|------------------------|----------------------|----------------------|
Bb|-0----------------------|-0----------------------|-10-------------------|-9--------------------|
F |------------------------|------------------------|----------------------|----------------------|


[2:59]
    Gtr II
F |--3----------------3-|--3----------------3-|-3-2-2---------2/|/11----------------|
C |---------------------|---------------------|-----------------|-------------------|
Ab|---------------------|---------------------|-----------------|-------------------|
Eb|---------------------|---------------------|-----------------|-------------------|
Bb|---------------------|---------------------|-----------------|-------------------|
F |---------------------|---------------------|-----------------|-------------------|
  |
  | Gtr I
F |---------------------|---------------------|---------2-------|----------0--------|
C |-----------8---------|-----------8---------|-----0-----0-----|------4-----4------|
Ab|------11-----11------|------11-----11------|-------0-----0---|----4---4-----4----|
Eb|----9----9------9----|----9----9------9----|---0-----------0-|----------------4--|
Bb|-10---------------10-|-10---------------10-|-2---------------|--2----------------|
F |---------------------|---------------------|-----------------|-------------------|


F |-12-------------14-15-|-17--------------15-|-14-------------14-15-|-17--------------17--|
C |----------------------|----------17--------|----------------------|----------17---------|
Ab|----------------------|--------------------|----------------------|---------------------|
Eb|----------------------|--------------------|----------------------|---------------------|
Bb|----------------------|--------------------|----------------------|---------------------|
F |----------------------|--------------------|----------------------|---------------------|
  |
F |----------------------|--------0----0----0-|--------0---0----0----|--------0----0----0--|
C |--------1-0-----------|--------------------|----------------------|---------------------|
Ab|------------2---------|------4----5---4----|------4---5---4-------|------4----5---4-----|
Eb|----2---------2-------|----4---------------|----4-----------------|----4----------------|
Bb|--0---0----------0----|--2-----------------|--2-------------------|--2------------------|
F |----------------------|--------------------|----------------------|---------------------|


F |-19------------|
C |---------------|
Ab|---------------|
Eb|---------------|
Bb|---------------|
F |---------------|
  |
F |--------0------|
C |----------0----|
Ab|------4--------|
Eb|----4----------|
Bb|--2------------|
F |---------------|


[3:21 Clean Lead]
    Tempo = 140 bpm
    Gtr II
F |-----------------|---------------------|--------------------|-------------------------------|
C |-----------------|---------------------|--------------------|-------------------------------|
Ab|---12-12---11-11-|-(11)----------------|----12-12-----11-11-|-(11)-----9-11-/14\12----------|
Eb|-----------------|------12-14----------|--------------------|------\10-------------12p10----|
Bb|-----------------|---------------------|--------------------|----------------------------12-|
F |-----------------|---------------------|--------------------|-------------------------------|
  |
  | Gtr I
F |-----------------|---0------0--0-0-0-0-|-0---0----0-0--0--0-|-------------------------------|
C |-----------------|---0------0--0-0-0-0-|-0---0----0-0--0--0-|---1------1------1--1--1-----1-|
Ab|-----------------|---0------0--0-0-0-0-|-0---0----0-0--0--0-|---0------0------0--0--0-----2-|
Eb|-----------------|---2------2--2-2-2-2-|-2---2----2-2--2--2-|---2------2------2--2--2-----2-|
Bb|-----------------|---2------2--2-2-2-2-|-2---2----2-2--2--2-|---3------3------3--3--3-----0-|
F |-----------------|---0------0--0-0-0-0-|-0---0----0-0--0--0-|-------------------------------|


F |--------------------|----------------------------|-----------------------|------------15-17--------------|
C |--------7-8-8---7-7-|-(7)------------------------|--------8/10-8\7-10-12-|-(12)-15/17-------15b17r15-12--|
Ab|--------------------|-------7b9-7----------------|-----------------------|-------------------------------|
Eb|--------------------|-----9---------9----------9-|-(9)-------------------|-------------------------------|
Bb|-(12)---------------|-----------------10----10---|-----10----------------|-------------------------------|
F |--------------------|--------------------12------|-----------------------|-------------------------------|
  |
F |--------------------|--0----0-----0-0-----0----0-|--0-----0----0-0--0--0-|-------------------------------|
C |---1--1---0---0-0-0-|--0----0-----0-0-----0----0-|--0-----0----0-0--0--0-|---1------1-----1--1-----1--3--|
Ab|---2--2---2---2-2-2-|--0----0-----0-0-----0----0-|--0-----0----0-0--0--0-|---0------0-----0--0-----0--2--|
Eb|---2--2---2---2-2-2-|--2----2-----2-2-----2----2-|--2-----2----2-2--2--2-|---2------2-----2--2-----2--0--|
Bb|---0--0---0---0-0-0-|--2----2-----2-2-----2----2-|--2-----2----2-2--2--2-|---3------3-----3--3-----3-----|
F |--------------------|--0----0-----0-0-----0----0-|--0-----0----0-0--0--0-|-------------------------------|


F |-----------------------------|---------------------------|------------------------|
C |-(12)------------------------|---------------------------|------------------------|
Ab|--------11h12p11-12p11----11-|-(11)-12-9-11--------------|------------------------|
Eb|-----------------------12----|--------------12-9----9h10p|-9----16b17r16-14-------|
Bb|-----------------------------|-------------------10------|------------------17-14-|
F |-----------------------------|---------------------------|------------------------|
  |
F |-----------------------------|---0-----0-----0-0--0-0----|-0--0--------0--0--0--0-|
C |---3--3--------3-----3--3--3-|---0-----0-----0-0--0-0----|-0--0--------0--0--0--0-|
Ab|---2--2--------2-----2--2--2-|---0-----0-----0-0--0-0----|-0--0--------0--0--0--0-|
Eb|---0--0--------0-----0--0--0-|---2-----2-----2-2--2-2----|-2--2--------2--2--2--2-|
Bb|-----------------------------|---2-----2-----2-2--2-2----|-2--2--------2--2--2--2-|
F |-----------------------------|---0-----0-----0-0--0-0----|-0--0--------0--0--0--0-|


F |------------19b21r19-15-17-----|--------14-15-15---14-14-|-(14)----<12>---------------|
C |-------------------------------|-------------------------|---------<12>---------------|
Ab|---------------------------17--|-(17)--------------------|------16-<12>------------11-|
Eb|-------------------------------|-------------------------|--------------------9h12----|
Bb|-(14)-17/19--------------------|-------------------------|-----------------10---------|
F |-------------------------------|-------------------------|----------------------------|
  |
F |-------------------------------|-------------------------|---0-------0---0--0-0-----0-|
C |---1------1--------1--1--1--1--|---1--1-----0----0--0--0-|---0-------0---0--0-0-----0-|
Ab|---0------0--------0--0--0--2--|---2--2-----2----2--2--2-|---0-------0---0--0-0-----0-|
Eb|---2------2--------2--2--2--2--|---2--2-----2----2--2--2-|---2-------2---2--2-2-----2-|
Bb|---3------3--------3--3--3--0--|---0--0-----0----0--0--0-|---2-------2---2--2-2-----2-|
F |-------------------------------|-------------------------|---0-------0---0--0-0-----0-|


F |-----------15-14-12-------|----15----17----19----15-|----17----19-------------14-17-|-17b19----|
C |--------------------------|-------------------------|----------------------15-------|----------|
Ab|-(11)-12-9----------12-14-|-16----16----16----16----|-16----16----16-14h16----------|----------|
Eb|--------------------------|-------------------------|-------------------------------|----------|
Bb|--------------------------|-------------------------|-------------------------------|----------|
F |--------------------------|-------------------------|-------------------------------|----------|
  |
F |---0-----0-----0--0--0--0-|-------------------------|-------------------------------|
C |---0-----0-----0--0--0--0-|--1-----1-----1--1--1--1-|--1--1-----1-----3-----3-----3-|
Ab|---0-----0-----0--0--0--0-|--0-----0-----0--0--0--0-|--0--0-----0-----2-----2-----2-|
Eb|---2-----2-----2--2--2--2-|--2-----2-----2--2--2--2-|--2--2-----2-----0-----0-----0-|
Bb|---2-----2-----2--2--2--2-|--3-----3-----3--3--3--3-|--3--3-----3-------------------|
F |---0-----0-----0--0--0--0-|-------------------------|-------------------------------|


[3:51] We've bided time, we've travelled to distant worlds...

F ||--0--0--0-0-0-0-|-(0)--0--0-0-0-0-|---------------|-----------------|
C ||--0--0--0-0-0-0-|-(0)--0--0-0-0-0-|-1--1--1-1-1-1-|-(1)-1--0--0-0-0-|
Ab||--0--0--0-0-0-0-|-(0)--0--0-0-0-0-|-0--0--0-0-0-2-|-(2)-2--2--2-2-2-|
Eb||--2--2--2-2-2-2-|-(2)--2--2-2-2-2-|-2--2--2-2-2-2-|-(2)-2--2--2-2-2-|
Bb||--2--2--2-2-2-2-|-(2)--2--2-2-2-2-|-3--3--3-3-3-0-|-(0)-0--0--0-0-0-|
F ||--0--0--0-0-0-0-|-(0)--0--0-0-0-0-|---------------|-----------------|


F |-0--0--0-0-0-0-|-(0)--0--0-0-0-0-|---------------|-------------------||
C |-0--0--0-0-0-0-|-(0)--0--0-0-0-0-|-1--1--1-1-1-3-|-(3)-3--3--3-3-3---||
Ab|-0--0--0-0-0-0-|-(0)--0--0-0-0-0-|-0--0--0-0-0-2-|-(2)-2--2--2-2-2---|| 
Eb|-2--2--2-2-2-2-|-(2)--2--2-2-2-2-|-2--2--2-2-2-0-|-(0)-0--0--0-0-0---|| x4
Bb|-2--2--2-2-2-2-|-(2)--2--2-2-2-2-|-3--3--3-3-3---|-------------------||
F |-0--0--0-0-0-0-|-(0)--0--0-0-0-0-|---------------|-------------------||


[4:45] This is all that I...Have...

F |------------------------|------------------------|-2--0-0-0-0-0-0-0-0-0-0-|-2--0-0-0-0-0-0-0-0-0-0-|
C |-0--0-0-0-0-0-0-0-0-0-0-|------------------------|-0--0-0-0-0-0-0-0-0-0-0-|-0--0-0-0-0-0-0-0-0-0-0-|
Ab|-0--0-0-0-0-0-0-0-0-0-0-|-7--7-7-7-7-7-7-7-7-7-7-|-0--0-0-0-0-0-0-0-0-0-0-|-0--0-0-0-0-0-0-0-0-0-0-|
Eb|-2--2-2-2-2-2-2-2-2-2-2-|-7--7-7-7-7-7-7-7-7-7-7-|-2--2-2-2-2-2-2-2-2-2-2-|-2--2-2-2-2-2-2-2-2-2-2-|
Bb|-3--3-3-3-3-3-3-3-3-3-3-|-5--5-5-5-5-5-5-5-5-5-5-|-2--2-2-2-2-2-2-2-2-2-2-|-2--2-2-2-2-2-2-2-2-2-2-|
F |------------------------|------------------------|-0--0-0-0-0-0-0-0-0-0-0-|-0--0-0-0-0-0-0-0-0-0-0-|


F |------------------------|------------------------|-0--0-0-0-0-0-0-0-0-0-0-|-------------------------|
C |-0--0-0-0-0-0-0-0-0-0-0-|------------------------|-0--0-0-0-0-0-0-0-0-0-0-|-------------------------|
Ab|-0--0-0-0-0-0-0-0-0-0-0-|-7--7-7-7-7-7-7-7-7-7-7-|-0--0-0-0-0-0-0-0-0-0-0-|-0--0--0--0--0--0--0--0--|
Eb|-2--2-2-2-2-2-2-2-2-2-2-|-7--7-7-7-7-7-7-7-7-7-7-|-2--2-2-2-2-2-2-2-2-2-2-|-2--2--2--2--2--2--2--2--|
Bb|-3--3-3-3-3-3-3-3-3-3-3-|-5--5-5-5-5-5-5-5-5-5-5-|-2--2-2-2-2-2-2-2-2-2-2-|-3--3--3--3--3--3--3--3--|
F |------------------------|------------------------|-0--0-0-0-0-0-0-0-0-0-0-|-------------------------|


F |---------------------------------|----------------------------------|
C |---------------------------------|----------------------------------|
Ab|-7-7-7-7-7-7-7-7-7-7-7-7-7-7-7-7-|-7-7-7-7-7-7-7-7-7-7-7-7-7-7-7-7--|
Eb|-7-7-7-7-7-7-7-7-7-7-7-7-7-7-7-7-|-7-7-7-7-7-7-7-7-7-7-7-7-7-7-7-7--|
Bb|-5-5-5-5-5-5-5-5-5-5-5-5-5-5-5-5-|-5-5-5-5-5-5-5-5-5-5-5-5-5-5-5-5--|
F |---------------------------------|----------------------------------|


[5:02 Distorted Lead]
    Gtr I
F |--------------------|------------------|------------------------|----------------------|
C |----15-15-15--14-14-|-(14)-15----------|------15-15-15-17-15-14-|-(14)----14----14-----|
Ab|--------------------|---------16-------|------------------------|------------16--------|
Eb|--------------------|------------------|------------------------|------------------16--|
Bb|--------------------|------------------|------------------------|----------------------|
F |--------------------|------------------|------------------------|----------------------|
  |
  | Gtr II
F |--------------------|------------------|------------------------|----------------------|
C |--------------------|------------------|------------------------|----------------------|
Ab|----12-12-12--11-11-|-(11)-12----------|------12-12-12-14-12-11-|-(11)----11----11-----|
Eb|--------------------|---------14-------|------------------------|------------14--------|
Bb|--------------------|------------------|------------------------|------------------14--|
F |--------------------|------------------|------------------------|----------------------|
  |
  | Gtr III
F |--------------------|-------------0----|-(0)--------------------|----------------------|
C |--------------------|-------------0----|-(0)--------------------|----------------------|
Ab|-7------------------|-------------0----|-(0)--------------------|----------------------|
Eb|-7------------------|-------------2----|-(2)--------------------|----------------------|
Bb|-5------------------|-------------2----|-(2)--------------------|----------------------|
F |--------------------|-------------0----|-(0)--------------------|----------------------|


F |--------------------------|---------------------|------------------------|---------------15-14-|
C |-------15-15-15--14-15b17-|-(15)-15p14-12-------|------15-15-15-17-15-17-|-(17)----17----------|
Ab|--------------------------|---------------------|------------------------|------------16-------|
Eb|-(16)---------------------|---------------------|------------------------|---------------------|
Bb|--------------------------|---------------------|------------------------|---------------------|
F |--------------------------|---------------------|------------------------|---------------------|
  |
F |--------------------------|---------------------|------------------------|---------------------|
C |--------------------------|---------------------|------------------------|---------------13-12-|
Ab|-------12-12-12--11-12b14-|-(12)-12p11--9-------|------12-12-12-14-12-14-|-(14)----14----------|
Eb|--------------------------|---------------------|------------------------|------------14-------|
Bb|-(14)---------------------|---------------------|------------------------|---------------------|
F |--------------------------|---------------------|------------------------|---------------------|
  |
F |--------------------------|----------------0----|-(0)--------------------|---------------------|
C |--------------------------|----------------0----|-(0)--------------------|---------------------|
Ab|--------------------------|----------------0----|-(0)--------------------|---------------------|
Eb|--------------------------|----------------2----|-(2)--------------------|----------------2--4-|
Bb|--------------------------|----------------2----|-(2)--------------------|----------------0--2-|
F |--------------------------|----------------0----|-(0)--------------------|---------------------|


F |-(14)----------------/20-19-|-19-------------------|
C |----------------------------|----------------------|
Ab|----------------------------|----------------------|
Eb|----------------------------|----------------------|
Bb|----------------------------|----------------------|
F |----------------------------|----------------------|
  |
F |----------------------------|----------------------|
C |-(12)----------------/18-17-|-17-------------------|
Ab|----------------------------|----------------------|
Eb|----------------------------|----------------------|
Bb|----------------------------|----------------------|
F |----------------------------|----------------------|
  |
F |----------------------------|----------------------|
C |----------------------------|----------------------|
Ab|----------------------------|----------------------|
Eb|--(4)------------------5--4-|----------------------|
Bb|--(2)-2-2-2-2-2-2-2-2--3--2-|--2-2-2-2-2-2-2-2-2-2-|
F |----------------------------|----------------------|


[5:19] To live, to die...
     Gtr I
F ||-------------------|-------------------|---------------|----------------|
C ||-------------------|-------------------|---------------|----------------|
Ab||-------------------|-------------------|---------------|----------------|
Eb||-5---5-4---4h5p4---|-5---5-4---4h5p4---|---------------|----------------|
Bb||-7---7-7---7-------|-7---7-7---7-------|-5---5-5---5---|-5---5-5---5----|
F ||-0-0-0-0-0-0-----0-|-0-0-0-0-0-0-----0-|-3-3-3-2---3-3-|-3-3-3-2---3-3--|


F |-------------------|-------------------|------------------|----------------||
C |-------------------|-------------------|------------------|----------------||
Ab|-5---5-4---4h5p4---|-5---5-4---4h5p4---|-5---5-4--4h5p4---|-5---5-4--5p4---|| 
Eb|-2---2-2---2-------|-2---2-2---2-------|-4---4-4--4-------|-4---4-4------4-|| x2
Bb|-0-0-0-0-0-0-----0-|-0-0-0-0-0-0-----0-|-2-2-2-2--2-----2-|-2-2-2-2--------||
F |-------------------|-------------------|------------------|----------------||


[5:47]
     Gtr II (Gtr I continues previous riff)
F ||-19---17---15--|-19---17---15--|-14---15---17--|-14---15---17---|
C ||---------------|---------------|---------------|----------------|
Ab||---------------|---------------|---------------|----------------|
Eb||---------------|---------------|---------------|----------------|
Bb||---------------|---------------|---------------|----------------|
F ||---------------|---------------|---------------|----------------|


F |-19---17---15--|-19---17---15--|-----------17--|-----------17---||
C |---------------|---------------|-17---16-------|-17---16--------||
Ab|---------------|---------------|---------------|----------------|| 
Eb|---------------|---------------|---------------|----------------|| x2
Bb|---------------|---------------|---------------|----------------||
F |---------------|---------------|---------------|----------------||


[6:14 Clean interlude]
     Gtr I + Gtr II
F ||----------0-------|---------0-------|---------0-------|--------------------|
C ||--------0---0-----|-------0---0-----|-------0---0-----|--------------------|
Ab||------2-------2---|-----2-------2---|-----2-------2---|-----2---0---0h2h4--|
Eb||----2-----------2-|---2-----------2-|---2-----------2-|---2-------0--------|
Bb||------------------|-----------------|-----------------|--------------------|
F ||--0---------------|-0---------------|-0---------------|-0-----2------------|


    Gtr I
F |-------0---------|-------0---------|-------0---------|--------------------||
C |---------3-1-0---|---------3-1-0---|---------3-1-0---|--------------------||
Ab|-----0---------0-|-----0---------0-|-----0---------0-|-----0-----0-2-4-5--||
Eb|---2-------------|---2-------------|---2-------------|---2-----4----------|| x4
Bb|-3---------------|-3---------------|-3---------------|-3-----5------------||
F |-----------------|-----------------|-----------------|--------------------||
  |
  | Gtr II
F |-----------------|-----------------|-----------------|--------------------||
C |-------1-0-------|-------1-0-------|-------1-0-------|--------------------||
Ab|-----0-----0-----|-----0-----0-----|-----0-----0-----|-----0-----0-----0--||
Eb|---2---------4---|---2---------4---|---2---------4---|---2-----4-----4----|| x4
Bb|-3-------------5-|-3-------------5-|-3-------------5-|-3-----5-----5------||
F |-----------------|-----------------|-----------------|--------------------||


F |---------0-------|---------0-------|---------0-------|-0----------------|
C |-------0---0-----|-------0---0-----|-------0---0-----|---0--------------|
Ab|-----2-------2---|-----2-------2---|-----2-------2---|-----2------------|
Eb|---2-----------2-|---2-----------2-|---2-----------2-|-------2-0-5-4-0--|
Bb|-----------------|-----------------|-----------------|------------------|
F |-0---------------|-0---------------|-0---------------|------------------|


[6:48] Stagnation is death in a constitution of progress...

F ||------------------------|--------------------------|-------------------------|-------------------------|
C ||------------------------|--------------------------|-------------------------|-------------0--0--0--0--|
Ab||------------------------|--------------------------|-------------------------|-------------0--0--0--0--|
Eb||--5-4-5---------5-----4-|-5------9-10-----7--9-----|-5-4-5---------5---------|-2--2--2--2--2--2--2--2--|
Bb||--7-5-7---------7-----5-|-7-----10-12-----9-10-----|-7-5-7---------7---------|-3--3--3--3--3--3--3--3--|
F ||--0-0-0-0-0-0-0-0-0-0-0-|-0-0-0-------0-0------0-0-|-0-0-0-0-0-0-0-0-0-0-0-0-|-------------------------|


F |-----------------------|--------------------------|-------------------------|-------------------------||
C |-----------------------|--------------------------|-------------------------|-------------0--0--0--0--||
Ab|-----------------------|--------------------------|-------------------------|-------------0--0--0--0--||
Eb|-5-4-5---------5-----4-|-5------9-10-----7--9-----|--9-10-7---------5-----7-|-2--2--2--2--2--2--2--2--|| x2
Bb|-7-5-7---------7-----5-|-7-----10-12-----9-10-----|-10-12-9---------7-----9-|-3--3--3--3--3--3--3--3--||
F |-0-0-0-0-0-0-0-0-0-0-0-|-0-0-0-------0-0------0-0-|--0--0-0-0-0-0-0-0-0-0---|-------------------------||


[7:16 Solo] (time signatures likely inaccurate)

F |-----------------|----------|
C |-----------------|----------|
Ab|-----------------|----------|
Eb|-----------------|----------|
Bb|-----------------|----------|
F |-///0------------|-0~~~-----|
  Whammy bar scoop

F |---------------|-----------------8-10-12p10p8---------------|-------------------------------------|
C |---------------|--------------10--------------10------------|----------------------------12-13-15-|
Ab|---------------|---------9-11--------------------11p9-------|-14--12--11--------------------------|
Eb|---------------|------10------------------------------10----|-------------14-12-10h12h14----------|
Bb|-9--7-7-(7)----|-7h12------------------------------------12-|-------------------------------------|
F |---------------|--------------------------------------------|-------------------------------------|


 7/8                                         4/4
F |----------------15-14-12-------------------|-----------------|
C |-13-12-------------------15-13-12----------|-------------15--|
Ab|-------14-12-11-------------------14-12-14-|-16-------14-----|
Eb|-------------------------------------------|-------16--------|
Bb|-------------------------------------------|-----------------|
F |-------------------------------------------|-----------------|


F |-17b19---17------------------|------------------------------17-19-20-|
C |------------15---17-19-17-19-|-19b20---19b20r=19---17-19-20----------|
Ab|-----------------------------|---------------------------------------|
Eb|-----------------------------|---------------------------------------|
Bb|-----------------------------|---------------------------------------|
F |-----------------------------|---------------------------------------|


F |-19--17--15h17p15----15--------------------------|
C |------------------17----17-15----15-17-15----15--|
Ab|------------------------------16----------16-----|
Eb|-------------------------------------------------|
Bb|-------------------------------------------------|
F |-------------------------------------------------|


F |-12----12-12-12-12-12----12-12-12-12-12----12-12-|-15-----15-15-15-15-15-15----(15)-------|
C |-15b17-------------15b17-------------15b17-------|-15b17==17-17-17-17-17-15b17-(15)b17~~~-|
Ab|-------------------------------------------------|----------------------------------------|
Eb|-------------------------------------------------|----------------------------------------|
Bb|-------------------------------------------------|----------------------------------------|
F |-------------------------------------------------|----------------------------------------|
                                                    Hold bend

 6/4
F |-19-15----15-------------------------------------------------------------|
C |-------19----19-15-19-15-13-17-13----13----------------------------------|
Ab|----------------------------------16----16-12-14-12----12----------------|
Eb|----------------------------------------------------16----16-14-16-14-12-|
Bb|-------------------------------------------------------------------------|
F |-------------------------------------------------------------------------|


 7/4
F |----------------------------------------------------------------------------------------14h15h17-|
C |-------------------------------------------------------------------------------14h15h17----------|
Ab|----------12-14-16-14-12----14-12-------12----------------------------12h14h16-------------------|
Eb|-12-14-16----------------16-------16-14----16-14-12-16-14-12-12h14h16----------------------------|
Bb|-------------------------------------------------------------------------------------------------|
F |-------------------------------------------------------------------------------------------------|


 4/4
F |-15---14h15p14-12~~~-|-----------------------|-------------------------------------------------|
C |---------------------|-----------------------|-------------------------------------------------|
Ab|---------------------|-12-11----14---11-12---|-12p11----11-12p11-14p11-12p11----11-12p11----11-|
Eb|---------------------|-------14--------------|-------14----------------------12----------14----|
Bb|---------------------|-----------------------|-------------------------------------------------|
F |---------------------|-----------------------|-------------------------------------------------|


F |-------------------------------------------------------------------------|---------|
C |-------------------------------------------------------------------------|---------|
Ab|-16-14-12----------------------------------------------------------------|---------|
Eb|----------16-14-12-16-14-12----------------------------------------------|---------|
Bb|----------------------------15-14-12-15-14-12----------------------------|---------|
F |----------------------------------------------15-14-12-15-14-12-14-12-10-|-12~~----|


[7:49] Ruling in the present while the future eludes us...

F |----------------------|----------------------|----------------------|----------------------|
C |----------------------|----------------------|----------------------|----------------------|
Ab|----------------------|----------------------|----------------------|----------------------|
Eb|-2--2---------2-----2-|-4--4---------4-----4-|-2--2---------2-----2-|-2--2---------2-----2-|
Bb|-3--3-3-3-3-3-3-3-3-3-|-5--5-5-5-5-5-5-5-5-5-|-2--2---------2-----2-|-2--2---------2-----2-|
F |----------------------|----------------------|-0--0-0-0-0-0-0-0-0-0-|-0--0-0-0-0-0-0-0-0-0-|


F |----------------------|----------------------|----------------------|-----------------|
C |----------------------|----------------------|----------------------|-----------------|
Ab|----------------------|----------------------|----------------------|-0-0-0-0-0-0-0-0-|
Eb|-2--2---------2-----2-|-4--4---------4-----4-|-2--2---------2-----2-|-2-2-2-2-2-2-2-2-|
Bb|-3--3-3-3-3-3-3-3-3-3-|-5--5-5-5-5-5-5-5-5-5-|-2--2---------2-----2-|-3-3-3-3-3-3-3-3-|
F |----------------------|----------------------|-0--0-0-0-0-0-0-0-0-0-|-----------------|


F |---------------------------------|----------------------------------|
C |---------------------------------|----------------------------------|
Ab|-7-7-7-7-7-7-7-7-7-7-7-7-7-7-7-7-|-7-7-7-7-7-7-7-7-7-7-7-7-7-7-7-7--|
Eb|-7-7-7-7-7-7-7-7-7-7-7-7-7-7-7-7-|-7-7-7-7-7-7-7-7-7-7-7-7-7-7-7-7--|
Bb|-5-5-5-5-5-5-5-5-5-5-5-5-5-5-5-5-|-5-5-5-5-5-5-5-5-5-5-5-5-5-5-5-5--|
F |---------------------------------|----------------------------------|


[8:05]

F ||------------------|-----------------||
C ||------------------|-----------------||
Ab||--9-9-------------|-----------0-----||
Eb||--9-9-------2-----|-5-4-------4-----|| x3
Bb||--7-7-------2-----|-3-3-3-3-3-3-----||
F ||------0-0-0-0-----|-----------------||


F |-----------------|-------------------------|
C |-----------------|-------------------------|
Ab|-9-9-------------|-------------------------|
Eb|-9-9-------2-----|-5-4---------5-4---------|
Bb|-7-7-------2-----|-3-3-3-3-3-3-3-3-3-3-3-3-|
F |-----0-0-0-0-----|-------------------------|


[8:20] 
     Gtr I
F ||-19-----17-------15---|-19-----17-------15---|-14-----15---17---|-14-----15---17----|
C ||----------------------|----------------------|------------------|-------------------|
Ab||----------------------|----------------------|------------------|-------------------|
Eb||----------------------|----------------------|------------------|-------------------|
Bb||----------------------|----------------------|------------------|-------------------|
F ||----------------------|----------------------|------------------|-------------------|
   |
   | Gtr II
F ||----------------------|----------------------|------------------|-------------------|
C ||----------------------|----------------------|------------------|-------------------|
Ab||----------------------|----------------------|------------------|-------------------|
Eb||--5---5--4---4h5p=4---|--5---5--4---4h5p=4---|------------------|-------------------|
Bb||--7---7--7---7--------|--7---7--7---7--------|--5---5--5----5---|--5---5--5----5----|
F ||--0-0-0--0-0-0------0-|--0-0-0--0-0-0------0-|--3-3-3--2----3-3-|--3-3-3--2----3-3--|


F |-19-----17-------15---|-19-----17-------15---|----------------17---|--------------17---||
C |----------------------|----------------------|-17-----16-----------|-17-----16---------||
Ab|----------------------|----------------------|---------------------|-------------------||
Eb|----------------------|----------------------|---------------------|-------------------|| x2
Bb|----------------------|----------------------|---------------------|-------------------||
F |----------------------|----------------------|---------------------|-------------------||
  |
F |----------------------|----------------------|---------------------|-------------------||
C |----------------------|----------------------|---------------------|-------------------||
Ab|--5---5--4---4h5p=4---|--5---5--4---4h5p=4---|--5---5--4--4h5p=4---|--5---5--4--5p=4---||
Eb|--2---2--2---2--------|--2---2--2---2--------|--4---4--4--4--------|--4---4--4-------4-|| x2
Bb|--0-0-0--0-0-0------0-|--0-0-0--0-0-0------0-|--2-2-2--2--2------2-|--2-2-2--2---------||
F |----------------------|----------------------|---------------------|-------------------||


[8:47 Clean interlude]

F |---------0-------|---------0-------|---------0-------|-0----------------|
C |-------0---0-----|-------0---0-----|-------0---0-----|---0--------------|
Ab|-----2-------2---|-----2-------2---|-----2-------2---|-----2------------|
Eb|---2-----------2-|---2-----------2-|---2-----------2-|-------2-0-5-4-0--|
Bb|-----------------|-----------------|-----------------|------------------|
F |-0---------------|-0---------------|-0---------------|------------------|


[8:54 Outro]
    Tempo = 104 bpm
    Gtr I
F |-7------------------|---7----7--------|-7------------------|------------------|
C |---10-8-7h8p7-------|-8---10---8-7-8--|---10---7h8p7-------|-8-----5----------|
Ab|--------------7-9---|-----------------|--------------7-9-7-|-9-----7----------|
Eb|--------------------|-----------------|--------------------|------------------|
Bb|--------------------|-----------------|--------------------|------------------|
F |--------------------|-----------------|--------------------|------------------|
  |
  | Gtr II
F |--------------------|-----------------|--------------------|------------------|
C |--------------------|-----------------|--------------------|------------------|
Ab|------0-------0---0-|------0---0---0--|--------0-------0---|-----0---0---0----|
Eb|--------------------|---4----4--------|------4-----4-----4-|---2-------4------|
Bb|----7-------7-------|-5----------5----|----5---------5-----|-3-----5----------|
F |-0------0-------0---|-----------------|-7------------------|------------------|


F |-----------------|----------14h15p14----------|-------------------------|------8-7-----------|
C |-----1-----1---1-|-------15----------15----15-|-------10-12-10----12-10-|----------7-8-3-----|
Ab|---0-----0-------|----16----------------16----|----12----------12-------|-5------------2-----|
Eb|-2-----2-----2---|-17-------------------------|-10----------------------|--------------0-----|
Bb|-----------------|----------------------------|-------------------------|--------------------|
F |-----------------|----------------------------|-------------------------|--------------------|
  |
F |-----------------|----------------------------|-------------------------|--------------------|
C |-----------------|----------------------------|-------------------------|-----10-8-----3-----|
Ab|-----0-----0---0-|-----------0--------0-----0-|-----------0--------0----|----------7-9-2-----|
Eb|-----------------|--------4--------------4----|-----2--------2--------2-|--------------0-----|
Bb|---7-----7-------|-----5----------------------|--3-----3--------3-------|-5------------------|
F |-0-----0-----0---|--3-------------------------|-------------------------|--------------------|



***********************************
  |(n)  Ghost note
  | /   Slide up
  | \   Slide down
  | h   Hammer-on
  | p   Pull-off
  | b   Bend
  | r   Release
  |  Natural harmonic
*********************************** 
Suggest correction
Give kudos to tab author, rate the tab!
1 2 3 4 5
comments
print report bad tab
3 comments total.
0 reply
Khetag Lagkuti 50 Oct 25, 2016 06:42 PM

I've been waiting for this. I think I might pick up a guitar again to try this out.

0 reply
fox2nsk 10 Nov 06, 2016 08:59 AM

Thanks a lot!

0 reply
Necrophobic21 237 Nov 09, 2016 12:18 PM

Most of the chords and arpeggios are wrong, they may sound similar but Vektor use different, dissonant and weird chords shapes.

guest
You may want to rate the tab now too:
select rating
Wanna post a correction for this tab? Suggest correction