Oops, an error
Loading. Please wait.

Pillars Of Sand tab

by Vektor
2,893 views 12 this week
2 commentsread comments
1 2 3 4 5
x 11
add to favorites
×
Save as Personal and add changes to this tab that will be seen only by you. Learn more ›
×
You can save this tab as Personal to edit and correct it or add notes. All changes will be seen only by you. Learn more »
launch autoscroll
font size
0
reset
how to read this tab
guitar tuner
edit
Autoscroll
slow
fast
+/-
esc
set tempo
stop
Author
VEKTOR
"Pillars of Sand"
From the album "Terminal Redux" (2016)

Tuning: F Bb Eb Ab C F (Half-step up from Standard)

[Clean Intro]

Tempo = 120 bpm

F |-----------------|-------------0---|---------------0-|-(0)---------------|
C |-----------------|-----------2---2-|---------------0-|-(0)---------------|
Ab|-----------------|---------0-------|---------------0-|-(0)---------------|
Eb|-----5-----4-----|-5-----4---------|-----2-----1---2-|-(2)------------2--|
Bb|---7-----6-----5-|-----4-----------|---3-----2-----2-|-(2)------------1--|
F |-0-----0-----0---|---0-------------|-0-----0-----0---|------0-0-2-3-0----|


F |-----------------|-------------0---|-----------------|--------------|------------|
C |-----------------|-----------2---2-|-----------------|--------------|------------|
Ab|-----------------|---------0-------|-----------------|--------------|------------|
Eb|-----5-----4-----|-5-----4---------|-----2-----1---2-|-(2)----------|-------2----|
Bb|---7-----6-----5-|-----4-----------|---3-----2-----2-|-(2)----------|-------1----|
F |-0-----0-----0---|---0-------------|-0-----0-----0-0-|-(0)------0-2-|-3--0-------|


[Riff 1]

Tempo = 192 bpm

F |-----------------|-------------0---|-----------------|--------------|
C |-----------------|-----------2---2-|-----------------|--------------|
Ab|-----------------|---------0-------|-----------------|--------------|
Eb|-----5-----4-----|-5-----4---------|-----2-----1-----|---2----------|
Bb|---7-----6-----5-|-----4-----------|---3-----2-------|-------2----1-|
F |-0-----0-----0---|---0-------------|-0-----0-----0-2-|-3---0-3--0-2-|


F |-----------------|-------------0---|-----------------|------------------|
C |-----------------|-----------2---2-|-----------------|------------------|
Ab|-----------------|---------0-------|-----------------|------------------|
Eb|-----5-----4-----|-5-----4---------|-----2-----1-----|------------------|
Bb|---7-----6-----5-|-----4-----------|---3-----2-------|-----3-0-2-----2--|
F |-0-----0-----0---|---0-------------|-0-----0-----0-2-|-3-0-------3-2----|


F |-----------------|-------------0---|-----------------|--------------|
C |-----------------|-----------2---2-|-----------------|--------------|
Ab|-----------------|---------0-------|-----------------|--------------|
Eb|-----5-----4-----|-5-----4---------|-----2-----1-----|---2----------|
Bb|---7-----6-----5-|-----4-----------|---3-----2-------|-------2----1-|
F |-0-----0-----0---|---0-------------|-0-----0-----0-2-|-3---0-3--0-2-|


F |-----------------|-------------0---|--------------------|------------------|
C |-----------------|-----------2---2-|--------------------|-----------8--8---|
Ab|-----------------|---------0-------|--------------------|-----------9--9---|
Eb|-----5-----4-----|-5-----4---------|-----2-----1--------|-----------9--9---|
Bb|---7-----6-----5-|-----4-----------|---3-----2-----9-10-|-9-7-------7--7---|
F |-0-----0-----0---|---0-------------|-0-----0-----0------|-----8-7-0--------|


[Riff 2]

F |-----------------------|-----------------------|-----------------------|--------------------------------|
C |-----------------------|--------------------0--|-----------------------|--------------------------------|
Ab|-----------------------|--------------------0--|-----------------------|--------------------------------|
Eb|---------5----------4--|---------5----------2--|---------2----------1--|---------------------------10-9-|
Bb|---------7----------6--|---------5----------4--|---------3----------2--|-10-------9-------12-------10-9-|
F |-0-0-0-0----0-0-0-0----|-0-0-0-0----0-0-0-0----|-0-0-0-0----0-0-0-0----|----0-0-0---0-0-0----0-0-0------|


    Gtr II
F |-----------------------|-----------------------|----------------------|---------------------------|
C |-----------------------|-----------------------|----------------------|---------------------------|
Ab|-----------------------|--------------------0--|-9-11---12---11-12-14-|-(14)----12-14---12-11-----|
Eb|---------5----------4--|---------5----------2--|----------------------|------14-------------------|
Bb|---------7----------6--|---------5----------4--|----------------------|---------------------------|
F |-0-0-0-0----0-0-0-0----|-0-0-0-0----0-0-0-0----|----------------------|---------------------------|
  |
  | Gtr I
F |-----------------------|-----------------------|----------------------|---------------------------|
C |-----------------------|-----------------------|-8--8-8--8-8--8--8--8-|---8---8--8--8-8--8--8-8---|
Ab|-----------------------|--------------------0--|-9--9-9--9-9--9--9--9-|---9---9--9--9-9--9--9-9---|
Eb|---------5----------4--|---------5----------2--|-9--9-9--9-9--9--9--9-|---9---9--9--9-9--9--9-9---|
Bb|---------7----------6--|---------5----------4--|-7--7-7--7-7--7--7--7-|---7---7--7--7-7--7--7-7---|
F |-0-0-0-0----0-0-0-0----|-0-0-0-0----0-0-0-0----|----------------------|---------------------------|


[Riff 3]

F ||----------------------------------|---------------------------------|
C ||----------------------------------|---------------------------------|
Ab||----------------------------------|---------------------------------|
Eb||--5-5-5-5-5-5-5-5-5-5-5-5-5-5-5-5-|-4-4-4-4-4-4-4-4-4-4-4-4-4-4-4-4-|
Bb||--7-7-7-7-7-7-7-7-7-7-7-7-7-7-7-7-|-6-6-6-6-6-6-6-6-6-6-6-6-6-6-6-6-|
F ||----------------------------------|---------------------------------|


F |---------------------------------|----------------------------------|
C |---------------------------------|----------------------------------|
Ab|---------------------------------|-0-0-0-0-0-0-0-0-0-0-0-0-0-0-0-0--|
Eb|-5-5-5-5-5-5-5-5-5-5-5-5-5-5-5-5-|-2-2-2-2-2-2-2-2-2-2-2-2-2-2-2-2--|
Bb|-5-5-5-5-5-5-5-5-5-5-5-5-5-5-5-5-|-4-4-4-4-4-4-4-4-4-4-4-4-4-4-4-4--|
F |---------------------------------|----------------------------------|


    Gtr II
F |--------------------------------------|-------------------------------------------||
C |--------------------------------------|-------------------------------------------||
Ab|-9---11-------12-------11---12---14---|-(14)---11---12---14-------12---11---------||
Eb|--------------------------------------|-------------------------------------------||
Bb|--------------------------------------|-------------------------------------------||
F |--------------------------------------|-------------------------------------------||
  |
  | Gtr I
F |--------------------------------------|-------------------------------------------||
C |--------------------------------------|-------------------------------------------||
Ab|--------------------------------------|-------------------------------------------||
Eb|-2-2--2-2-2-2--2-2-2-2--2-2--2-2--2-2-|---1--1--1-1--1-1--1-1-1-1--1-1--1-1-1-1---||
Bb|-3-3--3-3-3-3--3-3-3-3--3-3--3-3--3-3-|---2--2--2-2--2-2--2-2-2-2--2-2--2-2-2-2---||
F |--------------------------------------|-------------------------------------------||


[Verse]

F ||----------------------------------|---------------------------------|
C ||----------------------------------|---------------------------------|
Ab||----------------------------------|---------------------------------|
Eb||----------5-5-5-5-4-4-4-4---------|-5-5-5-5-5-5-5-5-5-5-5-5-5-5-5-5-|
Bb||----------7-7-7-7-6-6-6-6---------|-5-5-5-5-5-5-5-5-5-5-5-5-5-5-5-5-|
F ||--0-0-0-0-----------------0-0-0-0-|---------------------------------|


F |-----------------------------|----------------||
C |-----------------------------|----------------||
Ab|-----------------------------|------6--7-4-3--||
Eb|---------2-2-2-2-1-1-1-1-----|------4--5-2-1--||
Bb|---------3-3-3-3-2-2-2-2-----|----------------||
F |-0-0-0-0-----------------0-2-|-3-0------------||


[Pre-Chorus]

    Gtr II
F |--------------------|----------------------|-------------------|------------------|
C |--------------------|----------------------|-----8-8-----------|------------------|
Ab|--------------------|----------------12-11-|-----9-9-8---------|------------------|
Eb|------------9-----9-|--------10---10-------|-----9-9-8-------9-|-(9)-9---8----5---|
Bb|-------10-----------|---10-----------------|-----7-7-6-------7-|-(7)-7---6----3---|
F |-0-0-0----0---0-0---|-0----0----0----------|-0-0-------0-0-0---|-------8----0-----|
  |
  | Gtr I
F |--------------------|----------------------|-------------------|------------------|
C |--------------------|----------------------|-----8-8-----------|------------------|
Ab|--------------------|--------------------4-|-----9-9-8---------|------------------|
Eb|--------------------|--------------4--5----|-----9-9-8-------9-|-(9)-9---8----5---|
Bb|------------2-----2-|---------3------------|-----7-7-6-------7-|-(7)-7---6----3---|
F |-0-0-0--3-0---0-0---|-0--3-0----0----------|-0-0-------0-0-0---|-------8----0-----|


F |--------------------|----------------------|-------------------|-------------------|
C |--------------------|----------------------|-----8-8-----------|-------------------|
Ab|--------------------|----------------12-11-|-----9-9-8---------|-------------------|
Eb|------------9-----9-|---------10---9-------|-----9-9-8-------9-|-(9)-7-9-10--7-9---|
Bb|-------10-----------|---10-11--------------|-----7-7-6-------7-|-(7)---------------|
F |-0-0-0----0---0-0---|-0----------0---------|-0-0-------0-0-0---|-------------------|
  |
F |--------------------|----------------------|-------------------|-------------------|
C |--------------------|----------------------|-----8-8-----------|-------------------|
Ab|--------------------|----------------------|-----9-9-8---------|-------------------|
Eb|--------------------|-----------------5--4-|-----9-9-8-------9-|-(9)-7-9-10--7-9---|
Bb|------------2-----2-|----------3---2-------|-----7-7-6-------7-|-(7)---------------|
F |-0-0-0--3-0---0-0---|-0--3--4----0---------|-0-0-------0-0-0---|-------------------|


F |-------------------|----------------------|----------------------|--------------------------|
C |-------------------|----------------------|----------------------|--------------------------|
Ab|-------------------|----------------12-11-|-9-11---12---11-12-14-|-(14)-11-12-14---12-11----|
Eb|----------9--------|-11--------10---------|----------------------|--------------------------|
Bb|-----10-------10---|------10--------------|----------------------|--------------------------|
F |-0-0----0---0----0-|----0----0----0-------|----------------------|--------------------------|
  |
F |-------------------|----------------------|----------------------|--------------------------|
C |-------------------|----------------------|----------------------|--------------------------|
Ab|-------------------|----------------------|----------------------|--------------------------|
Eb|-------------------|-----------------5--4-|-2--2-2--2-2--2--2--2-|---1---1--1--1-1--1--1-1--|
Bb|----------2--------|--4---------3---------|-3--3-3--3-3--3--3--3-|---2---2--2--2-2--2--2-2--|
F |-0-0--3-0---0--3-0-|----0--3-0----0-------|----------------------|--------------------------|


[Chorus]
                                          4x
F ||-----------------|-5-5-5-5-5----------||
C ||--8-8-8-8--------|-5-5-5-5-5----------||
Ab||--9-9-9-9-7-9----|-5-5-5-5-5----------||
Eb||--9-9-9-9-7-9----|-7-7-7-7-7----------||
Bb||--7-7-7-7-5-7----|-7-7-7-7-7-6--7-9---||
F ||-----------------|-5-5-5-5-5----------||


F |---------------|------------------|
C |--1-1-1--4-4-4-|---7--7--7--10-12-|
Ab|--2-2-2--5-5-5-|---8--8--8--11-11-|
Eb|--4-4-4--7-7-7-|--10-10-10--13-13-|
Bb|---------------|------------------|
F |---------------|------------------|


[Riff 3]

F ||----------------------------------|---------------------------------|
C ||----------------------------------|---------------------------------|
Ab||----------------------------------|---------------------------------|
Eb||--5-5-5-5-5-5-5-5-5-5-5-5-5-5-5-5-|-4-4-4-4-4-4-4-4-4-4-4-4-4-4-4-4-|
Bb||--7-7-7-7-7-7-7-7-7-7-7-7-7-7-7-7-|-6-6-6-6-6-6-6-6-6-6-6-6-6-6-6-6-|
F ||----------------------------------|---------------------------------|


F |---------------------------------|----------------------------------|
C |---------------------------------|----------------------------------|
Ab|---------------------------------|-0-0-0-0-0-0-0-0-0-0-0-0-0-0-0-0--|
Eb|-5-5-5-5-5-5-5-5-5-5-5-5-5-5-5-5-|-2-2-2-2-2-2-2-2-2-2-2-2-2-2-2-2--|
Bb|-5-5-5-5-5-5-5-5-5-5-5-5-5-5-5-5-|-4-4-4-4-4-4-4-4-4-4-4-4-4-4-4-4--|
F |---------------------------------|----------------------------------|


    Gtr II
F |--------------------------------------|-------------------------------------------||
C |--------------------------------------|-------------------------------------------||
Ab|-9---11-------12-------11---12---14---|-(14)---11---12---14-------12---11---------||
Eb|--------------------------------------|-------------------------------------------||
Bb|--------------------------------------|-------------------------------------------||
F |--------------------------------------|-------------------------------------------||
  |
  | Gtr I
F |--------------------------------------|-------------------------------------------||
C |--------------------------------------|-------------------------------------------||
Ab|--------------------------------------|-------------------------------------------||
Eb|-2-2--2-2-2-2--2-2-2-2--2-2--2-2--2-2-|---1--1--1-1--1-1--1-1-1-1--1-1--1-1-1-1---||
Bb|-3-3--3-3-3-3--3-3-3-3--3-3--3-3--3-3-|---2--2--2-2--2-2--2-2-2-2--2-2--2-2-2-2---||
F |--------------------------------------|-------------------------------------------||


[Verse]

F ||----------------------------------|---------------------------------|
C ||----------------------------------|---------------------------------|
Ab||----------------------------------|---------------------------------|
Eb||----------5-5-5-5-4-4-4-4---------|-5-5-5-5-5-5-5-5-5-5-5-5-5-5-5-5-|
Bb||----------7-7-7-7-6-6-6-6---------|-5-5-5-5-5-5-5-5-5-5-5-5-5-5-5-5-|
F ||--0-0-0-0-----------------0-0-0-0-|---------------------------------|


F |-----------------------------|----------------||
C |-----------------------------|----------------||
Ab|-----------------------------|------6--7-4-3--||
Eb|---------2-2-2-2-1-1-1-1-----|------4--5-2-1--||
Bb|---------3-3-3-3-2-2-2-2-----|----------------||
F |-0-0-0-0-----------------0-2-|-3-0------------||


[Pre-Chorus]

    Gtr II
F |--------------------|----------------------|-------------------|------------------|
C |--------------------|----------------------|-----8-8-----------|------------------|
Ab|--------------------|----------------12-11-|-----9-9-8---------|------------------|
Eb|------------9-----9-|--------10---10-------|-----9-9-8-------9-|-(9)-9---8----5---|
Bb|-------10-----------|---10-----------------|-----7-7-6-------7-|-(7)-7---6----3---|
F |-0-0-0----0---0-0---|-0----0----0----------|-0-0-------0-0-0---|-------8----0-----|
  |
  | Gtr I
F |--------------------|----------------------|-------------------|------------------|
C |--------------------|----------------------|-----8-8-----------|------------------|
Ab|--------------------|--------------------4-|-----9-9-8---------|------------------|
Eb|--------------------|--------------4--5----|-----9-9-8-------9-|-(9)-9---8----5---|
Bb|------------2-----2-|---------3------------|-----7-7-6-------7-|-(7)-7---6----3---|
F |-0-0-0--3-0---0-0---|-0--3-0----0----------|-0-0-------0-0-0---|-------8----0-----|


F |--------------------|----------------------|-------------------|-------------------|
C |--------------------|----------------------|-----8-8-----------|-------------------|
Ab|--------------------|----------------12-11-|-----9-9-8---------|-------------------|
Eb|------------9-----9-|---------10---9-------|-----9-9-8-------9-|-(9)-7-9-10--7-9---|
Bb|-------10-----------|---10-11--------------|-----7-7-6-------7-|-(7)---------------|
F |-0-0-0----0---0-0---|-0----------0---------|-0-0-------0-0-0---|-------------------|
  |
F |--------------------|----------------------|-------------------|-------------------|
C |--------------------|----------------------|-----8-8-----------|-------------------|
Ab|--------------------|----------------------|-----9-9-8---------|-------------------|
Eb|--------------------|-----------------5--4-|-----9-9-8-------9-|-(9)-7-9-10--7-9---|
Bb|------------2-----2-|----------3---2-------|-----7-7-6-------7-|-(7)---------------|
F |-0-0-0--3-0---0-0---|-0--3--4----0---------|-0-0-------0-0-0---|-------------------|


F |-------------------|----------------------|----------------------|--------------------------|
C |-------------------|----------------------|----------------------|--------------------------|
Ab|-------------------|----------------12-11-|-9-11---12---11-12-14-|-(14)-11-12-14---12-11----|
Eb|----------9--------|-11--------10---------|----------------------|--------------------------|
Bb|-----10-------10---|------10--------------|----------------------|--------------------------|
F |-0-0----0---0----0-|----0----0----0-------|----------------------|--------------------------|
  |
F |-------------------|----------------------|----------------------|--------------------------|
C |-------------------|----------------------|----------------------|--------------------------|
Ab|-------------------|----------------------|----------------------|--------------------------|
Eb|-------------------|-----------------5--4-|-2--2-2--2-2--2--2--2-|---1---1--1--1-1--1--1-1--|
Bb|----------2--------|--4---------3---------|-3--3-3--3-3--3--3--3-|---2---2--2--2-2--2--2-2--|
F |-0-0--3-0---0--3-0-|----0--3-0----0-------|----------------------|--------------------------|


[Riff 1]

F ||------------------|-------------0---|-----------------|----------------||
C ||------------------|-----------2---2-|-----------------|----------------||
Ab||------------------|---------0-------|-----------------|----------------||
Eb||------5-----4-----|-5-----4---------|-----2-----1-----|---2------------||
Bb||----7-----6-----5-|-----4-----------|---3-----2-------|-------2----1---||
F ||--0-----0-----0---|---0-------------|-0-----0-----0-2-|-3---0-3--0-2---||


[Chorus]
                                          4x
F ||-----------------|-5-5-5-5-5----------||
C ||--8-8-8-8--------|-5-5-5-5-5----------||
Ab||--9-9-9-9-7-9----|-5-5-5-5-5----------||
Eb||--9-9-9-9-7-9----|-7-7-7-7-7----------||
Bb||--7-7-7-7-5-7----|-7-7-7-7-7-6--7-9---||
F ||-----------------|-5-5-5-5-5----------||


F |---------------|------------------|
C |--1-1-1--4-4-4-|---7--7--7--10-12-|
Ab|--2-2-2--5-5-5-|---8--8--8--11-11-|
Eb|--4-4-4--7-7-7-|--10-10-10--13-13-|
Bb|---------------|------------------|
F |---------------|------------------|


[Bridge]

12/8 Time

F |---------------------------|---------------------------|
C |---------------------------|---------------------------|
Ab|---------------------------|---------------------------|
Eb|-------------------9-------|-------------------9-------|
Bb|-7-10-9-7-6-9---10---9-----|-7-10-9-7-6-9---10---9-----|
F |--------------8--------8-7-|--------------8--------8-7-|


F |---------------------------|---------------------------|
C |---------------------------|---------------------------|
Ab|---------------------------|---------------------------|
Eb|-------------------9-------|-------------------9-------|
Bb|-7-10-9-7-6-9---10---9-----|-7-10-9-7-6-9---10---9-----|
F |--------------8--------8-7-|--------------8--------8-7-|


    Gtr II
F |-----------------------------|------------------------------|
C |------7-8-7---------7-8-7----|-------7-8-7---------7-8-7----|
Ab|-----------------------------|------------------------------|
Eb|-7-10-------10-7-10-------10-|--7-10-------10-7-10-------10-|
Bb|-----------------------------|------------------------------|
F |-----------------------------|------------------------------|
  |
  | Gtr I
F |-5---------------------------|-(5)--------------------------|
C |-5---------------------------|-(5)--------------------------|
Ab|-5---------------------------|-(5)--------------------------|
Eb|-7---------------------------|-(7)--------------------------|
Bb|-7---------------------------|-(7)--------------------------|
F |-5---------------------------|-(5)--------------------------|

  
    Gtr II
F |-------------------------|--------------------------|
C |-----7-8-7-------7-8-7---|------7-8-7-------7-8-7---|
Ab|---8-------8---8-------8-|----8-------8---8-------8-|
Eb|-9-----------9-----------|--9-----------9-----------|
Bb|-------------------------|--------------------------|
F |-------------------------|--------------------------|
  |
  | Gtr I
F |-7-----------------------|-(7)----------------------|
C |-7-----------------------|-(7)----------------------|
Ab|-8-----------------------|-(8)----------------------|
Eb|-9-----------------------|-(9)----------------------|
Bb|-9-----------------------|-(9)----------------------|
F |-7-----------------------|-(7)----------------------|


    Gtr II
F |----------7---------------7------|----------7---------------7------|
C |----8-10----10-8----8-10----10-8-|----8-10----10-8----8-10----10-8-|
Ab|--9---------------9--------------|--9---------------9--------------|
Eb|---------------------------------|---------------------------------|
Bb|---------------------------------|---------------------------------|
F |---------------------------------|---------------------------------|
  |
  | Gtr I
F |---------------------------------|---------------------------------|
C |---------------------------------|---------------------------------|
Ab|----9-11-12-11-9----9-11-12-11-9-|----9-11-12-11-9----9-11-12-11-9-|
Eb|-10--------------10--------------|-10--------------10--------------|
Bb|---------------------------------|---------------------------------|
F |---------------------------------|---------------------------------|


F |--------7--8--------------7--8-------|--------7--8--------------7--8-------|
C |--------------7--8--------------7--8-|--------------7--8--------------7--8-|
Ab|--8--9--------------8--9-------------|--8--9--------------8--9-------------|
Eb|-------------------------------------|-------------------------------------|
Bb|-------------------------------------|-------------------------------------|
F |-------------------------------------|-------------------------------------|
  |
F |-------11-12-11----------11-12-11----|-------11-12-11----------11-12-11----|
C |----12----------12----12----------12-|----12----------12----12----------12-|
Ab|-11----------------11----------------|-11----------------11----------------|
Eb|-------------------------------------|-------------------------------------|
Bb|-------------------------------------|-------------------------------------|
F |-------------------------------------|-------------------------------------|


F |--------8-12--8-----------8-12--8----|--------8-12--8-----------8-12--8----|
C |----10----------10----10----------10-|----10----------10----10----------10-|
Ab|--9-----------------9----------------|--9-----------------9----------------|
Eb|-------------------------------------|-------------------------------------|
Bb|-------------------------------------|-------------------------------------|
F |-------------------------------------|-------------------------------------|
  |
F |-------14-15-14----------14-15-14----|-------14-15-14----------14-15-14----|
C |-------------------------------------|-------------------------------------|
Ab|-14-17----------17-14-17----------17-|-14-17----------17-14-17----------17-|
Eb|-------------------------------------|-------------------------------------|
Bb|-------------------------------------|-------------------------------------|
F |-------------------------------------|-------------------------------------|


F |-------11-12-11----------11-12-11----|-------11-12-11----15-14-12-14-11-12-|
C |----12----------12----12----------12-|----12----------12-------------------|
Ab|-11----------------11----------------|-11----------------------------------|
Eb|-------------------------------------|-------------------------------------|
Bb|-------------------------------------|-------------------------------------|
F |-------------------------------------|-------------------------------------|
  |
F |-------14-15-14----------14-15-14----|-------14-15-14----19-17-15-17----15-|
C |----16----------16----16----------16-|----16----------16-------------19----|
Ab|-16----------------16----------------|-16----------------------------------|
Eb|-------------------------------------|-------------------------------------|
Bb|-------------------------------------|-------------------------------------|
F |-------------------------------------|-------------------------------------|


F |-------12-11-------14-12----11-------|-------12-11-------14-12----11-------|
C |----12-------12----------12----------|----12-------12----------12----------|
Ab|-11-------------11-------------12/14-|-11-------------11-------------12/14-|
Eb|-------------------------------------|-------------------------------------|
Bb|-------------------------------------|-------------------------------------|
F |-------------------------------------|-------------------------------------|
  |
F |-------------------------------------|-------------------------------------|
C |-------------------------------------|-------------------------------------|
Ab|-------------------------------------|-------------------------------------|
Eb|--9--------9-------11----------------|--9--------9-------11----------------|
Bb|--7--------6--------9----------------|--7--------6--------9----------------|
F |-----------------------------5--7--8-|-----------------------------5--7--8-|


F |-------12-11-------14-12----11-------|-------12-11-------14-12----11-------|
C |----12-------12----------12----------|----12-------12----------12----------|
Ab|-11-------------11-------------12/14-|-11-------------11-------------12/14-|
Eb|-------------------------------------|-------------------------------------|
Bb|-------------------------------------|-------------------------------------|
F |-------------------------------------|-------------------------------------|
  |
F |-------------------------------------|-------------------------------------|
C |-------------------------------------|-------------------------------------|
Ab|-------------------------------------|-------------------------------------|
Eb|--9--------9-------11----------------|--9--------9-------11----------------|
Bb|--7--------6--------9----------------|--7--------6--------9----------------|
F |-----------------------------5--7--8-|-----------------------------5--7--8-|


F |-----------------------------|------------------------------|
C |------7-8-7---------7-8-7----|-------7-8-7---------7-8-7----|
Ab|-----------------------------|------------------------------|
Eb|-7-10-------10-7-10-------10-|--7-10-------10-7-10-------10-|
Bb|-----------------------------|------------------------------|
F |-----------------------------|------------------------------|
  |
F |-5---------------------------|-(5)--------------------------|
C |-5---------------------------|-(5)--------------------------|
Ab|-5---------------------------|-(5)--------------------------|
Eb|-7---------------------------|-(7)--------------------------|
Bb|-7---------------------------|-(7)--------------------------|
F |-5---------------------------|-(5)--------------------------|

  
F |-------------------------|--------------------------|
C |-----7-8-7-------7-8-7---|------7-8-7-------7-8-7---|
Ab|---8-------8---8-------8-|----8-------8---8-------8-|
Eb|-9-----------9-----------|--9-----------9-----------|
Bb|-------------------------|--------------------------|
F |-------------------------|--------------------------|
  |
F |-7-----------------------|-(7)----------------------|
C |-7-----------------------|-(7)----------------------|
Ab|-8-----------------------|-(8)----------------------|
Eb|-9-----------------------|-(9)----------------------|
Bb|-9-----------------------|-(9)----------------------|
F |-7-----------------------|-(7)----------------------|


F |----------7---------------7------|----------7---------------7------|
C |----8-10----10-8----8-10----10-8-|----8-10----10-8----8-10----10-8-|
Ab|--9---------------9--------------|--9---------------9--------------|
Eb|---------------------------------|---------------------------------|
Bb|---------------------------------|---------------------------------|
F |---------------------------------|---------------------------------|
  |
F |---------------------------------|---------------------------------|
C |---------------------------------|---------------------------------|
Ab|----9-11-12-11-9----9-11-12-11-9-|----9-11-12-11-9----9-11-12-11-9-|
Eb|-10--------------10--------------|-10--------------10--------------|
Bb|---------------------------------|---------------------------------|
F |---------------------------------|---------------------------------|


F |--------7--8--------------7--8-------|--------7--8--------------7--8-------|
C |--------------7--8--------------7--8-|--------------7--8--------------7--8-|
Ab|--8--9--------------8--9-------------|--8--9--------------8--9-------------|
Eb|-------------------------------------|-------------------------------------|
Bb|-------------------------------------|-------------------------------------|
F |-------------------------------------|-------------------------------------|
  |
F |-------11-12-11----------11-12-11----|-------11-12-11----------11-12-11----|
C |----12----------12----12----------12-|----12----------12----12----------12-|
Ab|-11----------------11----------------|-11----------------11----------------|
Eb|-------------------------------------|-------------------------------------|
Bb|-------------------------------------|-------------------------------------|
F |-------------------------------------|-------------------------------------|


F |--------8-12--8-----------8-12--8----|--------8-12--8-----------8-12--8----|
C |----10----------10----10----------10-|----10----------10----10----------10-|
Ab|--9-----------------9----------------|--9-----------------9----------------|
Eb|-------------------------------------|-------------------------------------|
Bb|-------------------------------------|-------------------------------------|
F |-------------------------------------|-------------------------------------|
  |
F |-------14-15-14----------14-15-14----|-------14-15-14----------14-15-14----|
C |-------------------------------------|-------------------------------------|
Ab|-14-17----------17-14-17----------17-|-14-17----------17-14-17----------17-|
Eb|-------------------------------------|-------------------------------------|
Bb|-------------------------------------|-------------------------------------|
F |-------------------------------------|-------------------------------------|


F |-------11-12-11----------11-12-11----|-------11-12-11----15-14-12-14-11-12-|
C |----12----------12----12----------12-|----12----------12-------------------|
Ab|-11----------------11----------------|-11----------------------------------|
Eb|-------------------------------------|-------------------------------------|
Bb|-------------------------------------|-------------------------------------|
F |-------------------------------------|-------------------------------------|
  |
F |-------14-15-14----------14-15-14----|-------14-15-14----19-17-15-17----15-|
C |----16----------16----16----------16-|----16----------16-------------19----|
Ab|-16----------------16----------------|-16----------------------------------|
Eb|-------------------------------------|-------------------------------------|
Bb|-------------------------------------|-------------------------------------|
F |-------------------------------------|-------------------------------------|


F |-------12-11-------14-12----11-------|-------12-11-------14-12----11-------|
C |----12-------12----------12----------|----12-------12----------12----------|
Ab|-11-------------11-------------12/14-|-11-------------11-------------12/14-|
Eb|-------------------------------------|-------------------------------------|
Bb|-------------------------------------|-------------------------------------|
F |-------------------------------------|-------------------------------------|
  |
F |-------------------------------------|-------------------------------------|
C |-------------------------------------|-------------------------------------|
Ab|-------------------------------------|-------------------------------------|
Eb|--9--------9-------11----------------|--9--------9-------11----------------|
Bb|--7--------6--------9----------------|--7--------6--------9----------------|
F |-----------------------------5--7--8-|-----------------------------5--7--8-|


F |-------12-11-------14-12----11-------|-------12-11-------14-12----11-------|
C |----12-------12----------12----------|----12-------12----------12----------|
Ab|-11-------------11-------------12/14-|-11-------------11-------------12/14-|
Eb|-------------------------------------|-------------------------------------|
Bb|-------------------------------------|-------------------------------------|
F |-------------------------------------|-------------------------------------|
  |
F |-------------------------------------|-------------------------------------|
C |-------------------------------------|-------------------------------------|
Ab|-------------------------------------|-------------------------------------|
Eb|--9--------9-------11----------------|--9--------9-------11----------------|
Bb|--7--------6--------9----------------|--7--------6--------9----------------|
F |-----------------------------5--7--8-|-----------------------------5--7--8-|


F |---------------------------|---------------------------|
C |---------------------------|---------------------------|
Ab|---------------------------|---------------------------|
Eb|-------------------9-------|-------------------9-------|
Bb|-7-10-9-7-6-9---10---9-----|-7-10-9-7-6-9---10---9-----|
F |--------------8--------8-7-|--------------8--------8-7-|


F |---------------------------|---------------------------|
C |---------------------------|---------------------------|
Ab|---------------------------|---------------------------|
Eb|-------------------9-------|-------------------9-------|
Bb|-7-10-9-7-6-9---10---9-----|-7-10-9-7-6-9---10---9-----|
F |--------------8--------8-7-|--------------8--------8-7-|


[Return to 4/4 Time]

F |-12---8--------8----------------------------------------|
C |----------10-------10-------10--------------------------|
Ab|------------------------9--------9--------9-------------|
Eb|-------------------------------------10-------10--------|
Bb|---------------------------------------------------12---|
F |--------------------------------------------------------|
  |
F |--------------------------------------------------------|
C |--------------------------------------------------------|
Ab|--------------------------------------------------------|
Eb|---------------2-------------2--------------------------|
Bb|--0-0---0----0-0-0----0---0--0-0---0----0-0-0----0----0-|
F |--------------------------------------------------------|


F |--------------------8---10-12-10---8--------8---10---|
C |---------------10----------------------10------------|
Ab|-----------9-----------------------------------------|
Eb|------10---------------------------------------------|
Bb|-12--------------------------------------------------|
F |-----------------------------------------------------|
  |
F |-----------------------------------------------------|
C |-----------------------------------------------------|
Ab|-----------------------------------------------------|
Eb|--2-------------------2------------------------------|
Bb|--0-0----0---0--0-0---0----------0---0--0-0---0----0-|
F |-----------------------------------------------------|


F |-14---11--------11-------------------------------------------|
C |-----------12--------12--------12----------------------------|
Ab|--------------------------11--------11--------11-------------|
Eb|-----------------------------------------13--------13--------|
Bb|--------------------------------------------------------14---|
F |-------------------------------------------------------------|
  |
F |-------------------------------------------------------------|
C |-------------------------------------------------------------|
Ab|-------------------------------------------------------------|
Eb|-----------------4--------------4----------------------------|
Bb|--2-2----2----2--2-2----2----2--2-2----2----2--2-2----2----2-|
F |-------------------------------------------------------------|


F |---------------------11---12-14-12---11--------11---12-----|
C |----------------12------------------------12---------------|
Ab|-----------11----------------------------------------------|
Eb|------13---------------------------------------------------|
Bb|-14--------------------------------------------------------|
F |-----------------------------------------------------------|
  |
F |-----------------------------------------------------------|
C |-----------------------------------------------------------|
Ab|-----------------------------------------------------------|
Eb|--4---------------------4----------------------------------|
Bb|--2-2----2----2--2-2----2----------2----2--2-2----2----2---|
F |-----------------------------------------------------------|


F |-15---12--------12-------------------------------------------|
C |-----------13--------13--------13----------------------------|
Ab|--------------------------12--------12--------12-------------|
Eb|-----------------------------------------14--------14--------|
Bb|--------------------------------------------------------15---|
F |-------------------------------------------------------------|
  |
F |-------------------------------------------------------------|
C |-------------------------------------------------------------|
Ab|-------------------------------------------------------------|
Eb|-----------------5--------------5----------------------------|
Bb|--3-3----3----3--3-3----3----3--3-3----3----3--3-3----3----3-|
F |-------------------------------------------------------------|


F |---------------------12---14-15-14---12--------12---14-----|
C |----------------13------------------------13---------------|
Ab|-----------12----------------------------------------------|
Eb|------14---------------------------------------------------|
Bb|-15--------------------------------------------------------|
F |-----------------------------------------------------------|
  |
F |-----------------------------------------------------------|
C |-----------------------------------------------------------|
Ab|-----------------------------------------------------------|
Eb|--5---------------------5----------------------------------|
Bb|--3-3----3----3--3-3----3----------3----3--3-3----3----3---|
F |-----------------------------------------------------------|


F |-14---11--------11-------------------------------------------|
C |-----------12--------12--------12----------------------------|
Ab|--------------------------11--------11--------11-------------|
Eb|-----------------------------------------13--------13--------|
Bb|--------------------------------------------------------14---|
F |-------------------------------------------------------------|
  |
F |-------------------------------------------------------------|
C |-------------------------------------------------------------|
Ab|-------------------------------------------------------------|
Eb|-----------------4--------------4----------------------------|
Bb|--2-2----2----2--2-2----2----2--2-2----2----2--2-2----2----2-|
F |-------------------------------------------------------------|


F |---------------------11---12-14-12---11--------11---12-----|
C |----------------12------------------------12---------------|
Ab|-----------11----------------------------------------------|
Eb|------13---------------------------------------------------|
Bb|-14--------------------------------------------------------|
F |-----------------------------------------------------------|
  |
F |-----------------------------------------------------------|
C |-----------------------------------------------------------|
Ab|-----------------------------------------------------------|
Eb|--4---------------------4----------------------------------|
Bb|--2-2----2----2--2-2----2----------2----2--2-2----2----2---|
F |-----------------------------------------------------------|


F |-15---12--------12-------------------------------------------|
C |-----------13--------13--------13----------------------------|
Ab|--------------------------12--------12--------12-------------|
Eb|-----------------------------------------14--------14--------|
Bb|--------------------------------------------------------15---|
F |-------------------------------------------------------------|
  |
F |-------------------------------------------------------------|
C |-------------------------------------------------------------|
Ab|-------------------------------------------------------------|
Eb|-----------------5--------------5----------------------------|
Bb|--3-3----3----3--3-3----3----3--3-3----3----3--3-3----3----3-|
F |-------------------------------------------------------------|


F |---------------------12---14-15-14---12--------12---14-----|
C |----------------13------------------------13---------------|
Ab|-----------12----------------------------------------------|
Eb|------14---------------------------------------------------|
Bb|-15--------------------------------------------------------|
F |-----------------------------------------------------------|
  |
F |-----------------------------------------------------------|
C |-----------------------------------------------------------|
Ab|-----------------------------------------------------------|
Eb|--5---------------------5----------------------------------|
Bb|--3-3----3----3--3-3----3----------3----3--3-3----3----3---|
F |-----------------------------------------------------------|


F |-17---14--------14-------------------------------------------|
C |-----------16--------16--------16----------------------------|
Ab|--------------------------17--------17---14---17---14--------|
Eb|--------------------------------------------------------16---|
Bb|-------------------------------------------------------------|
F |-------------------------------------------------------------|
  |
F |-------------------------------------------------------------|
C |-------------------------------------------------------------|
Ab|-----------------2--------------2----------------------------|
Eb|-----------------4--------------4----------------------------|
Bb|--6-6----6----6--6-6----6----6--6-6----6----6--6-6----6----6-|
F |-------------------------------------------------------------|


F |----------------14---16---17-16-14--------14---16---17-----|
C |-----------16------------------------16--------------------|
Ab|-14---17---------------------------------------------------|
Eb|-----------------------------------------------------------|
Bb|-----------------------------------------------------------|
F |-----------------------------------------------------------|
  |
F |-----------------------------------------------------------|
C |-----------------------------------------------------------|
Ab|--2---------------------2----------------------------------|
Eb|--4---------------------4----------------------------------|
Bb|--6-6----6----6--6-6----6----------6----6--6-6----6----6---|
F |-----------------------------------------------------------|


F |-20---17--------17-------------------------------------------|
C |-----------19--------19--------19----------------------------|
Ab|--------------------------20--------20---17---20---17--------|
Eb|--------------------------------------------------------19---|
Bb|-------------------------------------------------------------|
F |-------------------------------------------------------------|
  |
F |-------------------------------------------------------------|
C |-------------------------------------------------------------|
Ab|-----------------5--------------5----------------------------|
Eb|-----------------7--------------7----------------------------|
Bb|--9-9----9----9--9-9----9----9--9-9----9----9--9-9----9----9-|
F |-------------------------------------------------------------|


F |----------------17---19---20-19-17--------17---19---20-----|
C |-----------19------------------------19--------------------|
Ab|-17---20---------------------------------------------------|
Eb|-----------------------------------------------------------|
Bb|-----------------------------------------------------------|
F |-----------------------------------------------------------|
  |
F |-----------------------------------------------------------|
C |-----------------------------------------------------------|
Ab|--5---------------------5----------------------------------|
Eb|--7---------------------7----------------------------------|
Bb|--9-9----9----9--9-9----9----------9----9--9-9----9----9---|
F |-----------------------------------------------------------|


F |-19---15--------------------------------------15---19---15---|
C |-----------17----------------------------17------------------|
Ab|----------------16------------------16-----------------------|
Eb|---------------------17--------17----------------------------|
Bb|--------------------------19---------------------------------|
F |-------------------------------------------------------------|
  | 
F |-------------------------------------------------------------|
C |-------------------------------------------------------------|
Ab|-------------------------------------------------------------|
Eb|-----------------9--------------9----------------------------|
Bb|--7-7----7----7--7-7----7----7--7-7----7----7--7-7----7----7-|
F |-------------------------------------------------------------|


F |-17---14----------------------------------14---17---14-----|
C |-----------16------------------------16--------------------|
Ab|----------------14--------------14-------------------------|
Eb|---------------------16------16----------------------------|
Bb|--------------------------18-------------------------------|
F |-----------------------------------------------------------|
  |
F |-----------------------------------------------------------|
C |-----------------------------------------------------------|
Ab|-----------------------------------------------------------|
Eb|--9---------------------9----------------------------------|
Bb|--6-6----6----6--6-6----6----------6----6--6-6----6----6---|
F |-----------------------------------------------------------|


[Riff 3]

F ||----------------------------------|---------------------------------|
C ||----------------------------------|---------------------------------|
Ab||----------------------------------|---------------------------------|
Eb||--5-5-5-5-5-5-5-5-5-5-5-5-5-5-5-5-|-4-4-4-4-4-4-4-4-4-4-4-4-4-4-4-4-|
Bb||--7-7-7-7-7-7-7-7-7-7-7-7-7-7-7-7-|-6-6-6-6-6-6-6-6-6-6-6-6-6-6-6-6-|
F ||----------------------------------|---------------------------------|


F |---------------------------------|----------------------------------|
C |---------------------------------|----------------------------------|
Ab|---------------------------------|-0-0-0-0-0-0-0-0-0-0-0-0-0-0-0-0--|
Eb|-5-5-5-5-5-5-5-5-5-5-5-5-5-5-5-5-|-2-2-2-2-2-2-2-2-2-2-2-2-2-2-2-2--|
Bb|-5-5-5-5-5-5-5-5-5-5-5-5-5-5-5-5-|-4-4-4-4-4-4-4-4-4-4-4-4-4-4-4-4--|
F |---------------------------------|----------------------------------|


    Gtr II
F |--------------------------------------|-------------------------------------------||
C |--------------------------------------|-------------------------------------------||
Ab|-9---11-------12-------11---12---14---|-(14)---11---12---14-------12---11---------||
Eb|--------------------------------------|-------------------------------------------||
Bb|--------------------------------------|-------------------------------------------||
F |--------------------------------------|-------------------------------------------||
  |
  | Gtr I
F |--------------------------------------|-------------------------------------------||
C |--------------------------------------|-------------------------------------------||
Ab|--------------------------------------|-------------------------------------------||
Eb|-2-2--2-2-2-2--2-2-2-2--2-2--2-2--2-2-|---1--1--1-1--1-1--1-1-1-1--1-1--1-1-1-1---||
Bb|-3-3--3-3-3-3--3-3-3-3--3-3--3-3--3-3-|---2--2--2-2--2-2--2-2-2-2--2-2--2-2-2-2---||
F |--------------------------------------|-------------------------------------------||


[Verse]

F ||----------------------------------|---------------------------------|
C ||----------------------------------|---------------------------------|
Ab||----------------------------------|---------------------------------|
Eb||----------5-5-5-5-4-4-4-4---------|-5-5-5-5-5-5-5-5-5-5-5-5-5-5-5-5-|
Bb||----------7-7-7-7-6-6-6-6---------|-5-5-5-5-5-5-5-5-5-5-5-5-5-5-5-5-|
F ||--0-0-0-0-----------------0-0-0-0-|---------------------------------|


F |-----------------------------|----------------||
C |-----------------------------|----------------||
Ab|-----------------------------|------6--7-4-3--||
Eb|---------2-2-2-2-1-1-1-1-----|------4--5-2-1--||
Bb|---------3-3-3-3-2-2-2-2-----|----------------||
F |-0-0-0-0-----------------0-2-|-3-0------------||


[Pre-Chorus]

    Gtr II
F |--------------------|----------------------|-------------------|------------------|
C |--------------------|----------------------|-----8-8-----------|------------------|
Ab|--------------------|----------------12-11-|-----9-9-8---------|------------------|
Eb|------------9-----9-|--------10---10-------|-----9-9-8-------9-|-(9)-9---8----5---|
Bb|-------10-----------|---10-----------------|-----7-7-6-------7-|-(7)-7---6----3---|
F |-0-0-0----0---0-0---|-0----0----0----------|-0-0-------0-0-0---|-------8----0-----|
  |
  | Gtr I
F |--------------------|----------------------|-------------------|------------------|
C |--------------------|----------------------|-----8-8-----------|------------------|
Ab|--------------------|--------------------4-|-----9-9-8---------|------------------|
Eb|--------------------|--------------4--5----|-----9-9-8-------9-|-(9)-9---8----5---|
Bb|------------2-----2-|---------3------------|-----7-7-6-------7-|-(7)-7---6----3---|
F |-0-0-0--3-0---0-0---|-0--3-0----0----------|-0-0-------0-0-0---|-------8----0-----|


F |--------------------|----------------------|-------------------|-------------------|
C |--------------------|----------------------|-----8-8-----------|-------------------|
Ab|--------------------|----------------12-11-|-----9-9-8---------|-------------------|
Eb|------------9-----9-|---------10---9-------|-----9-9-8-------9-|-(9)-7-9-10--7-9---|
Bb|-------10-----------|---10-11--------------|-----7-7-6-------7-|-(7)---------------|
F |-0-0-0----0---0-0---|-0----------0---------|-0-0-------0-0-0---|-------------------|
  |
F |--------------------|----------------------|-------------------|-------------------|
C |--------------------|----------------------|-----8-8-----------|-------------------|
Ab|--------------------|----------------------|-----9-9-8---------|-------------------|
Eb|--------------------|-----------------5--4-|-----9-9-8-------9-|-(9)-7-9-10--7-9---|
Bb|------------2-----2-|----------3---2-------|-----7-7-6-------7-|-(7)---------------|
F |-0-0-0--3-0---0-0---|-0--3--4----0---------|-0-0-------0-0-0---|-------------------|


F |-------------------|----------------------|----------------------|--------------------------|
C |-------------------|----------------------|----------------------|--------------------------|
Ab|-------------------|----------------12-11-|-9-11---12---11-12-14-|-(14)-11-12-14---12-11----|
Eb|----------9--------|-11--------10---------|----------------------|--------------------------|
Bb|-----10-------10---|------10--------------|----------------------|--------------------------|
F |-0-0----0---0----0-|----0----0----0-------|----------------------|--------------------------|
  |
F |-------------------|----------------------|----------------------|--------------------------|
C |-------------------|----------------------|----------------------|--------------------------|
Ab|-------------------|----------------------|----------------------|--------------------------|
Eb|-------------------|-----------------5--4-|-2--2-2--2-2--2--2--2-|---1---1--1--1-1--1--1-1--|
Bb|----------2--------|--4---------3---------|-3--3-3--3-3--3--3--3-|---2---2--2--2-2--2--2-2--|
F |-0-0--3-0---0--3-0-|----0--3-0----0-------|----------------------|--------------------------|


[Chorus]
                                          4x
F ||-----------------|-5-5-5-5-5----------||
C ||--8-8-8-8--------|-5-5-5-5-5----------||
Ab||--9-9-9-9-7-9----|-5-5-5-5-5----------||
Eb||--9-9-9-9-7-9----|-7-7-7-7-7----------||
Bb||--7-7-7-7-5-7----|-7-7-7-7-7-6--7-9---||
F ||-----------------|-5-5-5-5-5----------||


F |---------------|------------------|
C |--1-1-1--4-4-4-|---7--7--7--10-12-|
Ab|--2-2-2--5-5-5-|---8--8--8--11-11-|
Eb|--4-4-4--7-7-7-|--10-10-10--13-13-|
Bb|---------------|------------------|
F |---------------|------------------|


[Outro]

F |-----------------|-------------0---|-----------------|--------------|
C |-----------------|-----------2---2-|-----------------|--------------|
Ab|-----------------|---------0-------|-----------------|--------------|
Eb|-----5-----4-----|-5-----4---------|-----2-----1-----|--------------|
Bb|---7-----6-----5-|-----4-----------|---3-----2-------|---------2----|
F |-0-----0-----0---|---0-------------|-0-----0-----0-2-|-3---0-0-0----|


***********************************
|(n)  Ghost note
| /   Slide up
| \   Slide down
| h   Hummer-on
| p   Pull-off
*********************************** 

            
            
Suggest correction
Creating personal tab
Creating personal tab
You can edit any tab online and save it as your Personal.

You can edit, replace or remove any tab part or add personal notes – all changes will be seen only by you.

Personal tabs can be accessed anytime from any device, even offline.
Learn more »
comments
print report bad tab
2 comments total.
0 reply
lawson swan 10 Sep 14, 2017 10:04 AM

Is it dangerous to tune up like that?

guest
You may want to rate the tab now too:
select rating
Wanna post a correction for this tab? Suggest correction