Oops, an error
Loading. Please wait.

Big Machine Tab

version 3
version 3

Whole song

Interactive

502 views 1 this week
no commentswrite comment
1 2 3 4 5
accurate
x 3
add to favorites
launch autoscroll
font size
0
reset
how to read this tab
guitar tuner
Autoscroll
slow
fast
+/-
esc
set tempo
stop
Help us to improve Ultimate-Guitar.com Take our survey!
×
Velvet Revolver - Big Machine

Slash/Dave Kushner - Standard Tuning

This song is 99.9% correct because no one can get it perfect. It's a pretty
easy song with the solo being the hardest part. You can ignore the mutes in
the chorus if you want but I find it easier to keep the rhythm with them.
This is just the Slash's part because typing out the rest takes to long! ENJOY!


E --2----0----0------------2----0-------------------------------------|
B --3----2----0------------3----2-------------------------------------|
G --2----2----1------------2----2-------------------------------------|
D --0----2----2------------0----2----5-5-5-5-5-5-5-5-5-5-5-5-5-5-5----|
A -------0----2-----------------0----5-5-5-5-5-5-5-5-5-5-5-5-5-5-5----|
E ------------0----------------------3-3-3-3-3-3-3-3-3-3-3-3-3-3-3----|
                                   PM---------------------------------|

E -----------------------------------------------------------------------|
B -----------------------------------------------------------------------|
G --9-9-x-9-9-9-x-9-9-9-x-9-9-9-x-x--------------------------------------|
D --9-9-x-9-9-9-x-9-9-9-x-9-9-9-x-x----------12^(14)-----------12^(14)---|
A --7-7-x-7-7-7-x-7-7-7-x-7-7-7-x-x--------------------------------------|
E -----------------------------------------------------------------------|

E -----------------------------------------------------------------------|
B -----------------------------------------------------------------------|
G --9-9-x-9-9-9-x-9-9-9-x-9-9-9-x-x--------------------------------------|
D --9-9-x-9-9-9-x-9-9-9-x-9-9-9-x-x----------12^(14)-----------5^(7)-----|
A --7-7-x-7-7-7-x-7-7-7-x-7-7-7-x-x--------------------------------------|
E -----------------------------------------------------------------------|

E -----------------------------------------------------------------------|
B -----------------------------------------------------------------------|
G --9-9-x-9-9-9-x-9-9-9-x-9-9-9-x-x----------12^(14)-----------12^(14)---|
D --9-9-x-9-9-9-x-9-9-9-x-9-9-9-x-x--------------------------------------|
A --7-7-x-7-7-7-x-7-7-7-x-7-7-7-x-x--------------------------------------|
E -----------------------------------------------------------------------|

E --------------------------------------|
B --------------------------------------|
G --9-9-x-9-9-9-x-9-9-9-x-9-9-9-x-x-9---|
D --9-9-x-9-9-9-x-9-9-9-x-9-9-9-x-x-9---|
A --7-7-x-7-7-7-x-7-7-7-x-7-7-7-x-x-7---|
E --------------------------------------|

(You can play this if you want or just leave it to the bass and drums)

E ------------------------------|
B ------------------------------|
G ------------------------------|
D --2-2--2-2-2--2-2-2--2-2-2----|
A --2-2--2-2-2--2-2-2--2-2-2----|
E --0-0--0-0-0--0-0-0--0-0-0----|
  PM----------------------------|

E ---------------------------------|
B ---------------------------------|
G ---------------------------------|
D --2-2-2--2-2-2--2-2-2--2-2-2-----| x3
A --2-2-2--2-2-2--2-2-2--2-2-2-----|
E --0-0-0--0-0-0--0-0-0--0-0-0-----|
  PM-------------------------------|


E --0--------0--------0----------------2--------0--------3---------|
B --2--------2--------0----------------3--------2--------3---------|
G --3--------2--------1----------------2--------2--------0---------|
D --2--------2--------2----------------0--------2--------0---------|
A -----------0--------2-------------------------0--------2---------|
E --------------------0----------------------------------3---------|


E -----------------------------------------------------------------------|
B -----------------------------------------------------------------------|
G --9-9-x-9-9-9-x-9-9-9-x-9-9-9-x-x--------------------------------------|
D --9-9-x-9-9-9-x-9-9-9-x-9-9-9-x-x----------12^(14)-----------5^(7)-----|
A --7-7-x-7-7-7-x-7-7-7-x-7-7-7-x-x--------------------------------------|
E -----------------------------------------------------------------------|

E -----------------------------------------------------------------------|
B -----------------------------------------------------------------------|
G --9-9-x-9-9-9-x-9-9-9-x-9-9-9-x-x--------------------------------------|
D --9-9-x-9-9-9-x-9-9-9-x-9-9-9-x-x----------12^(14)-----------5^(7)-----|
A --7-7-x-7-7-7-x-7-7-7-x-7-7-7-x-x--------------------------------------|
E -----------------------------------------------------------------------|

E -----------------------------------------------------------------------|
B -----------------------------------------------------------------------|
G --9-9-x-9-9-9-x-9-9-9-x-9-9-9-x-x----------12^(14)-----------12^(14)---|
D --9-9-x-9-9-9-x-9-9-9-x-9-9-9-x-x--------------------------------------|
A --7-7-x-7-7-7-x-7-7-7-x-7-7-7-x-x--------------------------------------|
E -----------------------------------------------------------------------|

E --------------------------------------|
B --------------------------------------|
G --9-9-x-9-9-9-x-9-9-9-x-9-9-9-x-x-9---|
D --9-9-x-9-9-9-x-9-9-9-x-9-9-9-x-x-9---|
A --7-7-x-7-7-7-x-7-7-7-x-7-7-7-x-x-7---|
E --------------------------------------|


(You can strum however you like)

E --0---0-0-0---0-0--0---0-0-0---0-0--2---2-2--2---2-2--0--0-0-0---0-0---|
B --1---1-1-1---1-1--0---0-0-0---0-0--3---3-3--3---3-3--0--0-0-0---0-0---|
G --0---0-0-0---0-0--1---1-1-1---1-1--2---2-2--2---2-2--1--1-1-1---1-1---|
D --2---2-2-2---2-2--2---2-2-2---2-2--0---0-0--0---0-0--2--2-2-2---2-2---|
A --3---3-3-3---3-3--2---2-2-2---2-2--------------------2--2-2-2---2-2---|
E -------------------0---0-0-0---0-0--------------------0--0-0-0---0-0---|

E --0---0-0-0---0-0--3------------------------------------------------|
B --1---1-1-1---1-1--3------------------------------------------------|
G --0---0-0-0---0-0--0------------------------------------------------|
D --2---2-2-2---2-2--0---12-12-12-12\11-11\9-9\7-7\5-5\4-4\2-2p0-2\4--|x2
A --3---3-3-3---3-3--2------------------------------------------------|
E -------------------3------------------------------------------------|


E --------------------------------------------------------------------|
B --12--12---12---12---12---12---12---12---12---12---12---------------|
G --14^(15)-(15)-(15)-(15)-(15)-(15)-(15)-(15)-(15)-(16)--------------|
D --------------------------------------------------------14--14-14---| x2
A --------------------------------------------------------------------|
E --------------------------------------------------------------------|


E -----12-----------------------------x-x---------------------------|
B --12----15---^(18)----------------------x-x-x---------------------|
G ----------------------------------------------x-x-----------------|
D --------------------------------------------------x-x-x-----------|
A --------------------------------------------------------x-x-------|
E ------------------------------------------------------------x-x-x-|

E --------------------------------|
B --------------------------------|
G --------------------------------|
D --------------------------------|
A --x-/-x-\-x-/-x-\-x-/-x-\-x-/---|
E --x-/-x-\-x-/-x-\-x-/-x-\-x-/---|


E --2----0----0------------2----0-------------------------------------|
B --3----2----0------------3----2-------------------------------------|
G --2----2----1------------2----2-------------------------------------|
D --0----2----2------------0----2----5-5-5-5-5-5-5-5-5-5-5-5-5-5-5----|
A -------0----2-----------------0----5-5-5-5-5-5-5-5-5-5-5-5-5-5-5----|
E ------------0----------------------3-3-3-3-3-3-3-3-3-3-3-3-3-3-3----|
                       PM---------------------------------------------|


E ----------------------------------|
B --17----------------------^(18)---| (FADE IN USING VOLUME CONTROL)
G ----------------------------------|
D ----------------------------------|
A ----------------------------------|
E ----------------------------------|

E -----------------------------------------------------|
B --12-12-12-12-12-12-12-12-12-12----------------------|
G --14-14-14-14-14-14-14-14-14-14^(15)-----------------|
D --------------------------------------14--14-14------| x2
A -----------------------------------------------------|
E -----------------------------------------------------|

E ------------------------------------------------------------------------|
B --15-------15-------15-----14-------14-------14-----13-------13---------|
G -----14-------14--------------14-------14--------------14-------14------|
D --------14-------14----14--------14-------14----14--------14-------14---|
A ------------------------------------------------------------------------|
E ------------------------------------------------------------------------|

E --------------------------------------|
B --13-----15--15--15--15---------------|
G --------------------------------------|
D -----14-------------------------------|
A --------------------------------------|
E --------------------------------------|


E -----------------------------------------------------------------------|
B -15^(17)(17)(17)(17)(17)(17)(17)(17)-----------------------------------|
G -------------------------------------------12^(14)--------12^(14)------|
D -----------------------------------------------------------------------|
A -----------------------------------------------------------------------|
E -----------------------------------------------------------------------|

E ------------------------------------|
B ------------------------------------|
G --9-9-x-9-9-9-x-9-9-9-x-9-9-9-x-9---|
D --9-9-x-9-9-9-x-9-9-9-x-9-9-9-x-9---| x2
A --7-7-x-7-7-7-x-7-7-7-x-7-7-7-x-7---|
E ------------------------------------|

E ------------------------------------|
B --------9-9-9-----------9-9-9-------|
G --9-9-x-9-9-9-x-9-9-9-x-9-9-9-x-x---|
D --9-9-x-9-9-9-x-9-9-9-x-9-9-9-x-x---| x2
A --7-7-x-7-7-7-x-7-7-7-x-7-7-7-x-x---|
E ------------------------------------|


E ------------------------------------------------------------------------|
B ------------------------------------------------------------------------|
G ------------------------------------9-9-----9-9-----9-9-----9-9-----9---|
D -------12^(14)----------5^(7)-------9-9-----9-9-----9-9-----9-9-----9---|
A ------------------------------------7-7-----7-7-----7-7-----7-7-----7---|
E ------------------------------------------------------------------------|

Order

INTRO					PM 	= PALM MUTE
CHORUS 1				X 	= MUTE
VERSE					^	= BEND UP
PRE-CHORUS 1				/ 	= SLIDE UP
CHORUS 2				\	= SLIDE DOWN
BRIDGE					x/	= PICK SLIDE UP
SOLO 1					x\	= PICK SLIDE DOWN
VERSE 2					p	= PULL-OFF
PRE-CHORUS 2
CHORUS 2
SOLO 2
CHORUS 3
Suggest correction
What's this?
You can suggest a correction to this tab. Community and Mods will review your correction and vote to approve or reject it.
comments
We did not receive enough feedback on this tab! Please rate:
print report bad tab
1 2 3 4 5
guest
You may want to rate the tab now too:
select rating
Please do not post tabs as comments. Select "correction" instead!