Oops, an error
Loading. Please wait.

Dirty Little Thing Tab

version 2
version 2

Whole song

Interactive

1,855 views 9 this week
1 commentread comment
1 2 3 4 5
accurate
x 8
add to favorites
launch autoscroll
font size
0
reset
how to read this tab
guitar tuner
Tab Pro tools
  • play this tab
  • loop segment
  • change instrument
  • show fretboard
  • metronome
×
Best way to learn
"Dirty Little Thing"
Autoscroll
slow
fast
+/-
esc
set tempo
stop
Contributor
 
VELVET REVOLVER - DIRTY LITTLE THING


[ive only got one guitar because you can use one guitar for this song]

 tuning: E A D G B e
 Amp setting: gain=[3] treble=[5] middle=[6] bass=[2] reverb=[2]
 key: G
 speed: 166
 timing: 4/4

                     ___________    ___________
intro/main riff     |1.2.3         |4.
 |------------------------------|r|------------|
 |------------------------------|e|------------|
 |---4-----6-----7-----6--------|p|---6--------|
 |---5-----7-----8-----7---5/7-5|e|---7--------|
 |---5-----7-----8-----7---5/7-5|a|---7---2-2-2|
 |-0-3---0-5---0-6---0-5-0-3/5-3|t|-0-5-0-0-0-0|
                                          p.m--


bridge
 |---------------------------------------------------------|
 |---------------------------------------------------------|
 |--------------------------------8----8-8-8-8-7--7--7-7\\6|
 |-7----7-7-7-7-7-----------------7----7-7-7-7-7--7--------|
 |-7----7-7-7-7-7-----------------6----6-6-6-6-6--5--5-5\\4|
 |-5----5-5-5-5-5-5-5-5-5-5-5-5-5-5----5-5-5-5-5--5--------|
                  n.h------------


chorus
 |--------------------------------------------------------|
 |------------------------------------------------7--5-7-0|
 |-9---9---9-9---9-9-9---9-9-6-6---6---6-6--6-6-6-7--5-7-0|
 |10--10--1010--101010--1010-7-7---7---7-7--7-7-7--------0|
 |10--10--1010--101010--1010-7-7---7---7-7--7-7-7--------0|
 |-8---8---8-8---8-8-8---8-8-5-5---5---5-5--5-5-5---------|
                                                  b po

 | |-----------------------------------------------------------
 |o|--------------------------------------------5---5---5------
 | |--------------11----11-11-------------------7-----7-7------
 | |-----9-9-9-9-910----10-10-----------9-9-9-9-7-------7------
 |o|-7---7-7-7-7-710----10-10------7----7-7-7-7-5-------5------
 | |-0---0-0-0-0-0-8-----8--8------0----0-0-0-0----------------
         p.m------
                                   ______________    ______________
                                  |1.               |2.
 |-----------------------------------------------| |---------------|
 |-----------------------------------------------|o|---------------|
 |--------------11\\\\4------------x-7----x-6----| |-x-7----x-2----|
 |-----9-9-9-9-910\\\\5------------x-8----x-7----| |-x-8----x-3----|
 |-7---7-7-7-7-710\\\\5------------x-8----x-7----|o|-x-8----x-3----|
 |-0---0-0-0-0-0-8\\\\3------------x-6----x-5----| |-x-6----x-1----|


solo
 |----------------------------------------------------------|
 |----------------------------------------------------------|
 |-------------------------------------2-4-2---2-4-2---2-4/6|
 |-------------------2-4-2-2-3-4-2-3-4-------4-------4------|
 |-------2-3-4-2-3-4----------------------------------------|
 |-2---5----------------------------------------------------|
           s     s      po   s     s      po   

 |-2-------2-------2---2-----------2--------------------------|
 |---5-2-----5-2-----5---5---5-2-----5-4----------------------|
 |-------4-------4---------------4-------4-4-2---4-2--4-2-4/5/|
 |---------------------------------------------4--------------|
 |------------------------------------------------------------|
 |------------------------------------------------------------|
     po      po          b   po          b       

 |--------------------------------------------------12-12-------12--------|
 |----5---7-7-5---10-10-7-7-12-12-10-10-14-14-12-12-------14-12----17---17|
 |-/6---6------/9---------------------------------------------------------|
 |------------------------------------------------------------------------|
 |------------------------------------------------------------------------|
 |------------------------------------------------------------------------|
                                                                    b
 
 |-----------------------------------------------|
 |-14-17-14----14----14--------------------------|
 |----------17----17----17-16-14-16---16-14-16-14|
 |-----------------------------------------------|
 |-----------------------------------------------|
 |-----------------------------------------------|
       s                    s     b  po       po

 |-----------------------------------|
 |-----------------------------------|
 |-------14---16-16-14-------14-16-14|
 |-16-14---------------16-16---------|
 |-----------------------------------|
 |-----------------------------------|
    po            po             b

 |-15-14-12-14-12----12---------------------------------------------------|
 |----------------15----15-14-12-14-12----12------------------------------|
 |-------------------------------------15----15-14-15-14-12-14-12-14-12\11|
 |------------------------------------------------------------------------|
 |------------------------------------------------------------------------|
 |------------------------------------------------------------------------|
       s     po                                po      s     s 

 |------------------------------------------------------------|
 |------------------------------------------------------------|
 |----12----11-12-11-11---------------------------------------|
 |-14----14-------------12-14-11-12-11----11------------------|
 |-------------------------------------14----14-10-14-10----10|
 |-------------------------------------------------------12---|
                s        po       s              s    

 |--------------------------|
 |--------------------------|
 |--------------------------|
 |--------------------------|
 |-9-10-9----9--------------|
 |--------12---9-10-12\\\7-0|
                    ph

 |----12-12----12-12----12-15-14-12-14-------12-15------------|
 |----12-12----12-12----12-15-14-12-14-12----12-15----15-14---|
 |-14-------14-------14-------------------15-------12-15-14-12|
 |------------------------------------------------------------|
 |------------------------------------------------------------|
 |------------------------------------------------------------|
   b         b        b

 |------------------------------------------------------------|
 |-14---14----------12-14-12-14-14---14----14-12-15-----------|
 |-14---14-12-14----12-14-12-14-14---14-12-14-12--------------|
 |---------------14-------------------------------------------|
 |------------------------------------------------------------|
 |------------------------------------------------------------|
    b      po                    b                b~~~~~~~~~~

                                 ______________
Outro                           |1.3.
| |----------------------------------------------|
|o|-15--------17----15----17----15---------17----|
| |----------------------------------------------|
| |----------------------------------------------|
|o|----------------------------------------------|
| |----------------------------------------------|
    b         b     b     b     b     b     b     

                ______________________________    
               |2.
 |--------------------------------------------| |
 |----15---17---------------------------------|o|
 |--------------14---14---------------------14| |
 |--------------------------------------------| |
 |--------------------------------------------|o|
 |--------------------------------------------| |
       b    b    b    b~~~b~~~b~~~b~~~b~~~b  

 |----------------------------------------|
 |----------------------------------------|
 |-14------------16------14---------------|
 |----------------------------14\---------|
 |----------------------------------------|
 |----------------------------------------|
    b                      

rate or your a fuck head
comments
print report bad tab
1 comment total.
+1 reply
derekbarnes8806 wrote on November 22 2007, 06:14 pm

heres my comment w/ no rating

I want to post or [tab]
guest
You may want to rate the tab now too:
select rating
Please do not post tabs as comments. Select "correction" instead!