Oops, an error
Loading. Please wait.

Dirty Little Thing Bass Tab

version 3
version 3

Whole song

Interactive

714 views 1 this week
1 commentread comment
1 2 3 4 5
worth learning
x 2
add to favorites
launch autoscroll
font size
0
reset
guitar tuner
Tab Pro tools
  • play this tab
  • loop segment
  • change instrument
  • show fretboard
  • metronome
Autoscroll
slow
fast
+/-
esc
set tempo
stop
Contributor
Difficulty
novice
i dont take all the credit for this tab, i just took the bits from other tabs that
sounded right and added some of my own and changed a few bits. i think it sounds
better.

  
 |(Intro)        |(2nd Guitar comes in) 
G|---------------|-----------|------------------|
D|777777777777777|5h777777777|79h7--------------|
A|---------------|-----------|---7h9------------|
E|---------------|-----------|------7h95--------|
 |(Play as much 7's as necessary)
 
 |(Verse)
G|-----------------------------|
D|-----------------------------|
A|-----------------------------|
E|0--3--0--5--0--6--0--5--3-5-3| x4

 |
G|---------------|---------------|
D|---------------|---------------|
A|---------------|---------------|
E|-5~------5--55-|55~------5--55-| x2

 |(Verse)
G|-----------------------------|
D|-----------------------------|
A|-----------------------------|
E|0--3--0--5--0--6--0--5--3-5-3| x4
 
 |(Prechorus)
G|----------------------|
D|----------------------|
A|----------------------|
E|-777777777\5\33333333-| x1
 |(Play as much 7's/3's as necessary)

 |{Chorus)
G|-------------------------------|------------------|
D|-------------------------------|------------------|
A|------3----------5---------3---|---2--------------|
E|-0---------0---------0---------|------0-5--0-3----| x2
 
 |(Interlude)
G|---------------|-----------|----------------------|
D|777777777777777|5h777777777|7\31------------------|
A|---------------|-----------|----3h1-0-------------|
E|---------------|-----------|--------1-0-----------| x1

 |(Verse)
G|-----------------------------|
D|-----------------------------|
A|-----------------------------|
E|0--3--0--5--0--6--0--5--3-5-3| x4

 |
G|---------------|---------------|
D|---------------|---------------|
A|---------------|---------------|
E|-5~------5--55-|55~------5--55-| x2

 |(Verse)
G|-----------------------------|
D|-----------------------------|
A|-----------------------------|
E|0--3--0--5--0--6--0--5--3-5-3| x4

 |(Prechorus)
G|----------------------|
D|----------------------|
A|----------------------|
E|-777777777\5\33333333-| x1

 |{Chorus)
G|-------------------------------|------------------|
D|-------------------------------|------------------|
A|------3----------5---------3---|---2--------------|
E|-0---------0---------0---------|------0-5--0-3----| x2

 |(Solo)
G|-----------------------|------------------------|
D|-----------------------|------------------------|
A|-----------------------|------------------------|
E|00000000000000000000000|333333333333333333333333| x1
(Play as much 0's/3's as necessary)

 |(Prechorus)
G|----------------------|
D|----------------------|
A|----------------------|
E|-777777777\5\33333333-| x1

 |{Chorus)
G|-------------------------------|------------------|
D|-------------------------------|------------------|
A|------3----------5---------3---|---2--------------|
E|-0---------0---------0---------|------0-5--0-3----| x4


my first attempt at a tab..ever..
comments
We did not receive enough feedback on this tab! Please rate:
print report bad tab
1 2 3 4 5
1 comment total.
0 reply
dan the bassist wrote on May 11 2007, 10:50 am

well done

I want to post or [tab]
guest
You may want to rate the tab now too:
select rating
Please do not post tabs as comments. Select "correction" instead!