Oops, an error
Loading. Please wait.

Dirty Little Thing Bass Tab

version 4
version 4

Whole song

Interactive

255 views 1 this week
no commentswrite comment
1 2 3 4 5
3 more votes to show rating
add to favorites
launch autoscroll
font size
0
reset
guitar tuner
Autoscroll
slow
fast
+/-
esc
set tempo
stop
Help us to improve Ultimate-Guitar.com Take our survey!
×
Author
Difficulty
novice
Artist: Velvet Revolver
Title: Dirty little thing.
Standard tuning.

I posted this tab 'cause it isn't disponible in my country.

Intro(riff 1)
|-999999999999999999999999999999999999[...]799999999999999[...]97---------|
|----------------------------------------------------------------97-------|
|------------------------------------------------------------------97-----|
|---------------------------------------------------------------------9-\-|
In the final part it's also important a bit of improvvisation.

Riff 2
|---------------------------|
|---------------------------|
|---------------------------|
|-0-3--0-5--0-6--0-5--3-5-3-|

This riff that it's the verse can be executed like this too:
|--------------------------------------------------|
|--------------------------------------------------|
|--------------------------------------------------|
|-0000000000000000000000000000000000000000000-3/15-|

Riff 3
|--------------------------------------|
|--------------------------------------|
|--------------------------------------|
|-5---5---5-5---5---5---5----5---5---5-|

Riff 4
|---------------------|
|---------------------|
|-333333333-----------|
|-----------555555555-|

Riff 5
|---------------------------------------|
|---------------------------------------|
|-----3-------5-------3--2--------------|
|-0-------0-------0---------0--5---0--3-|

Riff 6
|-------------------------------------------------------------------------|
|-------------------------------------------------------------------------|
|-----------------------------------------------------3333333333333333333-|
|-000000000000000000000000000000000000000000000000000---------------------|
Suggest correction
Give kudos to tab author, rate the tab!
1 2 3 4 5
comments
print report bad tab
guest
You may want to rate the tab now too:
select rating
Wanna post a correction for this tab? Suggest correction