Oops, an error
Loading. Please wait.

Do It For The Kids Bass Tab

version 1
version 1

Whole song

Interactive

1,869 views 3 this week
no commentswrite comment
1 2 3 4 5
excellent!
x 4
add to favorites
launch autoscroll
font size
0
reset
guitar tuner
Autoscroll
slow
fast
+/-
esc
set tempo
stop
Help us to improve Ultimate-Guitar.com Take our survey!
×
Author
Band - Velvet Revolver
Song - Do It For The Kids

Verse:
G|---------------------------------|
D|---------------------------------|
A|---------------------------------|
E|-5-5-3-4-5-5-3-4-5-5-5-6--8----6-|

G|---------------------------------|
D|-----------------5-7-7-7-7-5-----|
A|-------------5-7-------------7-6-|
E|-5-5-3-4-5-5---------------------|

Chorus:
G|-----------------------------------------------------------------------|
D|-------------------------/15-15-15-15\---------------------------------|
A|-5-5-5-5-5-5-5-5-5-5-5-5---------------0-0-0-0-0-0-0-0-0-0-0-0-0-0-0-0-|
E|-----------------------------------------------------------------------|

G|-----------------------------------------------------------------------------------------------|
D|-----------------------------------------------------------------------------------------------|
A|-8-8-8-8-7-8-8-8-8-8-7-8-7-8-8-8-0-0-0-0-0-0-0-0-0-0-----8-8-7-7-5-5-5-5-5-5-5-5-5-5-5---------|
E|-----------------------------------------------------0-0-------------------------------8--6--6-|

Verse:
G|---------------------------------|
D|---------------------------------|
A|---------------------------------|
E|-5-5-3-4-5-5-3-4-5-5-5-6--8----6-|

G|---------------------------------|
D|-----------------5-7-7-7-7-7-7-7-|
A|-------------5-7-----------------|
E|-5-5-3-4-5-5---------------------|

Chorus:
G|-----------------------------------------------------------------------|
D|-------------------------/15-15-15-15\---------------------------------|
A|-5-5-5-5-5-5-5-5-5-5-5-5---------------0-0-0-0-0-0-0-0-0-0-0-0-0-0-0-0-|
E|-----------------------------------------------------------------------|

						1st ending	     
G|---------------------------------|---------------------------------|
D|---------------------------------|---------------------------------|
A|-8-8-8-8-7-8-8-8-8-8-7-8-7-8-8-8-|-0-0-0-0-0-0-0-0-0-0-----8-8-7-7-|
E|---------------------------------|---------------------0-0---------|

		2nd ending              
G|---------------------------------|
D|---------------------------------|
A|-0-0-0-0-0-0-0-0-0-0-0-0-0-0-0-0-|
E|---------------------------------|

Bridge:
G|-------------------------------------------------------------------------------------------------|
D|-3-3-3-3-3-3-3-3-3-3-3-3-3-3-3-3-----------------------------------------------------------------|
A|---------------------------------3-3-3-3-3-3-3-3-3-3-3-3-3-3-3-3-1-1-1-1-1-1-1-1-1-1-1-1-1-1-1-1-|
E|-------------------------------------------------------------------------------------------------|

G|-------------------------------------------------------------------------------------------------|
D|---------------------------------3-3-3-3-3-3-3-3-3-3-3-3-3---------------------------------------|
A|-----------------0-0-0-0-0-0-0-0---------------------------0-1-2-3-3-3-3-3-3-3-3-3-3-3-3-3-3-3-3-|
E|-1-1-1-1-1-1-1-1---------------------------------------------------------------------------------|

G|-----------------------------------------------------------------------------------------------|
D|-----------------------------------------------------------------------------------------------|
A|-1-1-1-1-1-1-1-1-1-1-1-1-1-1-1-1-----------------0-0-0-0-0-0-0-0-5-5-5-5-5-5-5-5-5-5-5---------|
E|---------------------------------1-1-1-1-1-1-1-1---------------------------------------8--6--6-|

G|---------------------------------|
D|---------------------------------|
A|---------------------------------| X3
E|-5-5-3-4-5-5-3-4-5-5-3-4-5-6-6-6-|

Verse:
G|---------------------------------|
D|---------------------------------|
A|---------------------------------| x3
E|-5-5-3-4-5-5-3-4-5-5-5-6--8----6-|

G|---------------------------------|
D|---------------------------------|
A|---------------------------------|
E|-5---------------5-5-5-5-5-5-5-5-|

Chorus:
G|-----------------------------------------------------------------------|
D|-------------------------/15-15-15-15\---------------------------------|
A|-5-5-5-5-5-5-5-5-5-5-5-5---------------0-0-0-0-0-0-0-0-0-0-0-0-0-0-0-0-|
E|-----------------------------------------------------------------------|\
                                                                           | x2
G|-----------------------------------------------------------------------|/
D|-----------------------------------------------------------------------|
A|-8-8-8-8-7-8-8-8-8-8-7-8-7-8-8-8-0-0-0-0-0-0-0-0-0-0-----8-8-7-7-------|
E|-----------------------------------------------------0-0---------------|

Ending:
G|-----------------------------------------------------------------|
D|-----------------------------------------------------------------|
A|-5-5-5-5-5-5-5-5-5-5-5-5-5-5-------------------------------------|
E|-----------------------------3-4-5-5-5-5-5-5-5-5-5-5-5-5-5-5-5-5-|

G|----------------------------------------------------------------------------|
D|----------------------------------------------------------------------------|
A|---------------------------------0-0-0-0-0-0-0-0-0-0-----8---7---5------5\--|
E|-1-1-1-1-1-1-1-1-1-1-1-1-1-1-1-1---------------------0-0--------------------|

End.
Suggest correction
comments
print report bad tab
guest
You may want to rate the tab now too:
select rating
Please do not post tabs as comments. Select "correction" instead!