Oops, an error
Loading. Please wait.

Get Out The Door Tab

version 3
version 3

Whole song

Interactive

1,467 views 3 this week
no commentswrite comment
1 2 3 4 5
please rate
add to favorites
launch autoscroll
font size
0
reset
how to read this tab
guitar tuner
Autoscroll
slow
fast
+/-
esc
set tempo
stop
Help us to improve Ultimate-Guitar.com Take our survey!
×
Contributor
georgeow 1,121
VELVET REVOLVER - GET OUT THE DOOR
TABBED BY GEORGE WILLIAMS
DROP D TUNING (DADGBE)

right well i was listening to this the other day, and no one has tabbed the
solo yet in a normal tab, so i thought i'd give it a go. have fun (Y)
and cheers for looking.

legend: 

| b    bend 
| r    return 
| /    slide up 
| \    slide down 
| h    hammer on 
| p    pull off 
| *    pinch harmonic 
| ~    tremolo 
| ...  palm muted 
| x    muted note 
| (n)  optional note 
| T    tapped note
| >    accented note (play strongly)
| [n]  natural harmonic


INTRO pt.1:

|----------------------------------------|
|----------------------------------------|
|----------------------------------------|
|-----------7/9-7--x------------7--/9-7--|
|-7-9-9--x--5/7-5--x--7-9-9--x--5--/7-5--|
|-7-9-9--x------------7-9-9--x-----------|


INTRO pt. 2:

|--------------------------------|
|--------------------------------|
|--------------------------------|
|-------7/9-7-----------7--/9-7--|
|-7-9~--5/7-5---7-9-9---5--/7-5--|
|-7-9~----------7-9-9------------|


VERSE:

|--------|--------|--------|-------------|
|--------|--------|--------|----------3--|
|--------|--------|--------|----------2--|
|--------|--------|--------|----------0--| x2
|-8-9-9--|-4-6-6--|-8-9-9--|-4-6-6--x-0--|
|-8-9-9--|-4-6-6--|-8-9-9--|-4-6-6--x----|


PRECHORUS:

|------------------------------------------|
|------------------------------------------|
|------------------------------------------|
|-----------------------------6-7-7--x-----|
|-9-9--x--0-2-2--x--2-4-4--x--4-5-5--x--7--|
|-9-9--x--0-2-2--x--2-4-4--x------------7--|

|--------------------------------------------|
|--------------------------------------------|
|--------------------------------------------|
|-----------------------------6-7-7--x-------|
|-9-9--x--0-2-2--x--2-4-4--x--4-5-5--x--7-9\-|
|-9-9--x--0-2-2--x--2-4-4--x------------7-9\-|


CHORUS LEAD:

|--------------10b12r10~--| REPEAT VERSE<
>REPEAT PRECHORUS<
>REPEAT CHORUS<


BRIDGE 2 w/wah wah:

|------------------------------------------------|
|------------------------------------------------|
|------------------------------------------------|
|------------------------------------------------|
|-9-9--9--9--7h9-9--9--9--7h9-9--9--9--7-7-7--0--|
|-9-9--9--9--7h9-9--9--9--7h9-9--9--9--7-7-7--0--|


PRECHORUS VARIATION:

   v dont play on first time through*
|-------------------------------------|
|-(9)-10-10---7-9-9---5-7-7---3-5-5---|
|-(9)-11-11---7-9-9---6-7-7---4-6-6---|
|-------------------------------------|
|-------------------------------------|
|-------------------------------------|


SOLO!:
lets give this a shot.. i'll tab it in sections
Slash uses a talkbox, so its piss hard to hear most of it

|------------------------------------|
|-12-------9------12------12---------| < not sure about the last bend?
|-14b16~--11b13~--14b16~--13b14~r13--|
|------------------------------------|
|------------------------------------|
|------------------------------------|

|----------------------------------------------------------|
|---15--15-15-15\-12-12--12-12-12\-10-10-10\-9-9-9\-7-7-7--|
|-x-16--16-16-16\-13-13--13-13-13\-11-11-11\-9-9-9\-7-7-7--|
|-x--------------------------------------------------------|
|----------------------------------------------------------|
|----------------------------------------------------------|

*switches to a more 'wah-wah'esque sound*

|-------------------------------------------------|
|------15-17b18.5~--17b19-r17p15-----------15b19--|
|-(16)---------------------------16-16--16--------|
|-------------------------------------------------|
|-------------------------------------------------|
|-------------------------------------------------|

|---------------------------------------------|
|-19b22-r19--17b19r-18-18-18-17p15-17-15------|
|----------------------------------------16\--|
|---------------------------------------------|
|---------------------------------------------|
|---------------------------------------------|


and thats about it. so cheers for looking and dont forget to comment/rate
cheers
comments
We did not receive enough feedback on this tab! Please rate:
print report bad tab
1 2 3 4 5
I want to post or [tab]
guest
You may want to rate the tab now too:
select rating
Please do not post tabs as comments. Select "correction" instead!