Oops, an error
Loading. Please wait.

Gravedancer Tab

version 1
version 1

Intro

Whole song

Interactive

5,418 views 6 this week
22 commentsread comments
1 2 3 4 5
accurate
x 16
add to favorites
launch autoscroll
font size
0
reset
how to read this tab
guitar tuner
Tab Pro tools
  • play this tab
  • loop segment
  • change instrument
  • show fretboard
  • metronome
×
Best way to learn
"Gravedancer"
Autoscroll
slow
fast
+/-
esc
set tempo
stop
Contributor
Difficulty
novice
E)-------------------------|
B)1P0----------------------|
G)----0--------------------|
D)------0--3H5--0----------|
A)------------------3--2---|
E)-----------------------3-|

E)-------------------------|
B)1P0----------------------|
G)----0--------------------|
D)------0--3H5--0----------|
A)-------------------------|
E)-----------------1--1S3--|

TABBED BY JOSH
comments
print report bad tab
22 comments total. Showing first comments.
0 reply
AzOnez wrote on July 10 2007, 09:45 am

Nice job!

+1 reply
justsixteen wrote on July 11 2007, 01:48 pm

I think it is:
E)-------------------------|
B)1p0----------------------|
G)----0----0---------------|
D)------0h4---0------------|
A)------------------3--2---|
E)-----------------------3-|

E)-------------------------|
B)1p0----------------------|
G)----0----0---------------|
D)------0h4-----0----------|
A)-------------------------|
E)-----------------1--1S3--|

0 reply
GNRkixass wrote on July 11 2007, 01:56 pm

yeah. justsixteen is right. that was gonna be my comment. still, i wouldnt have figured that out if it wasnt for you intro to get me started. so 5 stars.

I want to post or [tab]
guest
You may want to rate the tab now too:
select rating
Please do not post tabs as comments. Select "correction" instead!