Oops, an error
Loading. Please wait.

Gravedancer Tab

version 1
version 1

Intro

Whole song

Interactive

5,565 views 12 this week
22 commentsread comments
1 2 3 4 5
x 17
add to favorites
launch autoscroll
font size
0
reset
how to read this tab
guitar tuner
Autoscroll
slow
fast
+/-
esc
set tempo
stop
Help us to improve Ultimate-Guitar.com Take our survey!
×
Author
Difficulty
novice
[Intro]

E)-------------------------|
B)1p0----------------------|
G)----0------0-------------|
D)------0--4----0----------|
A)------------------3--2---|
E)-----------------------3-|

E)-------------------------|
B)1p0----------------------|
G)----0------0-------------|
D)------0--4----0----------|
A)-------------------------|
E)-----------------1--1s3--|

TABBED BY JOSH



************************************

| p  Pull-off
| s  Slide

************************************
Suggest correction
comments
print report bad tab
22 comments total. Showing first comments.
0 reply
AzOnez 10 Jul 10, 2007 09:45 AM

Nice job!

+1 reply
justsixteen 61 Jul 11, 2007 01:48 PM

I think it is:
E)-------------------------|
B)1p0----------------------|
G)----0----0---------------|
D)------0h4---0------------|
A)------------------3--2---|
E)-----------------------3-|

E)-------------------------|
B)1p0----------------------|
G)----0----0---------------|
D)------0h4-----0----------|
A)-------------------------|
E)-----------------1--1S3--|

0 reply
GNRkixass 101 Jul 11, 2007 01:56 PM

yeah. justsixteen is right. that was gonna be my comment. still, i wouldnt have figured that out if it wasnt for you intro to get me started. so 5 stars.

guest
You may want to rate the tab now too:
select rating
Wanna post a correction for this tab? Suggest correction