Oops, an error
Loading. Please wait.

Gravedancer Tab

version 2
version 2

Whole song

Interactive

6,141 views 9 this week
3 commentsread comments
1 2 3 4 5
excellent!
x 7
add to favorites
launch autoscroll
font size
0
reset
how to read this tab
guitar tuner
Autoscroll
slow
fast
+/-
esc
set tempo
stop
Help us to improve Ultimate-Guitar.com Take our survey!
×
Author
Difficulty
intermediate
Velvet Revolver - Gravedancer
From 'Libertad' Album
Standard Tuning
Tabbed by jjhand


Thanks to Gtr_God_69 for the initial tab. I noted where Rhythm guitar (Dave Kushner) and 

Lead Guitar (Slash) play so you and a buddy can go through it right. You can hear each 
part individually by panning your radio or mp3 player to Left speaker only for Slash's
part and right for Dave's part. I added a lot so please vote and comment.

  

Intro:
e|--------------------------------|-------------------------------|
B|--1p0---------------------------|--1p0--------------------------|
G|------0-----0-------------------|------0-----0------------------|
D|--------0p4---0-----------------|--------0p4---0----------------|
A|------------------3-----2-------|-------------------------------|
E|----------------------------3---|------------------1-----1/3----|
              ^ this note rings



Verse - play both parts 4x

   Rhythm - Rock Wah-wah effect on+off with each beat
e|-----------------------------|----------------------------|
B|-1p0----0--------------0-----|-1p0----0-------------------|
G|-----0--0-------2------2-----|-0------0-------0h2-----0---| 
D|-----------------------------|----------------------------| 
A|-----------------------------|----------------------------|
E|-3--------------1------------|-3--------------1-----------|
 |
 | Lead - Leave Wah up in 'Bass' position throughout
e|-----------------------------|----------------------------|
B|-----------------------------|----------------------------|
G|--------------------------0--|---------------------0------|
D|---------------------0-------|----------------------------|
A|--------5p3-0h3--------------|--------5p3-0h3-------------|
E|-1/3-3----------1--1---1-----|-1/3-3----------1--1----1---|




Chorus - play 3x

   Rhythm
e|-------------------------------|-------------------0---------|
B|-------1-------------3-----1---|-------1-------3-----1-------|
G|-----------0-------3-----3-----|-----------0-------------0---|
D|-----2-------------------------|-----2-----------------------|
A|-0-------------1---------------|-3---------------------------|
E|-------------------------------|-----------------------------|
 |
 | Lead
e|-8-----------------------------|-8---------------------------|
B|------8-------------6-----5----|------8-------------6----5---|
G|-----------5---7---------------|-----------5---7-------------|
D|-------------------------------|-----------------------------|
A|-------------------------------|-----------------------------|
E|-------------------------------|-----------------------------|


Chorus Ending (1:06)
e|-----------------------------|
B|-------1-----------------1---|
G|-----------0---------2-------| Rhythm immediately plays intro
D|-----2-------------3---------|
A|-0---------------------------|
E|---------------1-------------|
 |
 | Lead
e|-8---------------------------|----------------|
B|------8-------------6--------|-8--------------|fade out
G|-----------5---7-------------|-0--------------|
D|-----------------------------|----------------|
A|-----------------------------|----------------|
E|-----------------------------|----------------|




Play Intro and Verse Again, as indicated above


Play Chorus and Ending, then go immediately into Bridge


Bridge

   Rhythm (play 3x only)
e|------------------------|----------------------------|
B|------------------------|-----1----------------------|
G|-2h4-0---------2----0---|-------0-0---0--0---2-----0-|
D|--------0----3----3---0-|-0h2-------2------3-----0---| repeats similarly
A|------------------------|----------------------------|
E|-----------1------------|---------------1------------|
 |
 |Lead
e|------------------------|----------------------------|
B|------------------------|----------------------------| Continues
G|-----------5------------|---------------5----5---5---| Below
D|-7h9-------5h7--5---5h7-|-5-------------5h7--7p5-7p5-|
A|------------------------|-5h7------------------------|
E|------------------------|----------------------------|

   Lead(2) 
e|----------------------------------|-------------------------|
B|-----8-8--------------------------|-------------------------|
G|-----7-9p7---7------5-----5---5---|------5-----5----5-----5-|
D|-7/9-------9---7/9--5h7---7---5h7-|-5----5---5-5h7--5h7---5-|
A|----------------------------------|-5h7---------------------|
E|----------------------------------|-------------------------|

   Lead(3)
e|----------------------------|--------------------------|
B|-----8____\-----------------|--------------------------|
G|-----7____\---5-----5---5---|-----5------5-----5---5---|
D|-7/9______\---5h7---7p5-7p5-|-----5------5h7---7p5-7p5-|
A|----------------------------|-5h7----------------------|
E|----------------------------|--------------------------|



Bridge Ending:

  Rhythm
e|-----------------------------|-------------------------|
B|-----3-5-3-------------------|-4-------4--1-----1------|
G|-2h4-------4-2h4--0h2--2---0-|-3-----3-3--0-----0------|
D|------------------3----------|-1----------2-----2------|
A|-----------------------------|------------3-----3------|
E|-----------------------------|-------------------------|
 |
 |Lead
e|-----------------------------|-------------------------|
B|---------8-------------------|---------4------------1--|
G|-----7-9-7-7-7----5----5---5-|-------3-----------------|
D|-7/9-9-9---9-7h9--5h7--7p5-5-|-5----------2-----0h2----|
A|-----------------------------|-6----------3------------|
E|-----------------------------|-------------------------|






Solo (2:36)
e|------------------------------------|--------------------------------|
B|-13p12------------------------------|-13p12--------------------------|
G|------12---11b12r11-----------------|------12---11b12r11-------------|
D|--------12---------12---10--10\9-9--|--------12---------12---10--9---|
A|------------------------------------|--------------------------------|
E|------------------------------------|--------------------------------|
 |
 | Rhythm
e|------------------------------------|--------------------------------|
B|------------------------------------|--1p0---------------------------|
G|-0----------------------------------|------0-------------------------|
D|-0----------------------------------|--------0--4b5r4---0------------|
A|-2----------------------3----2------|--------------------------------|
E|-3-------------------------------3--|------------------------1---3---|


  Solo
e|----------------------------------|--------------------------|
B|-13p12----------------------------|-13p12-----15~------15-17-|
G|------12---11b12r11---------------|------12------------------|
D|--------12---------12---10--9-----|--------12----------------|
A|----------------------------------|--------------------------|
E|----------------------------------|--------------------------|
 |
 |Rhythm
e|----------------------------------|--------------------------|
B|--1p0-----------------------------|--------------------------|
G|------0---------------------------|-0--0--0--0--0--0--0--0---|
D|--------0---4b5r4--0--------------|-0--0--0--0--0--0--0--0---|
A|-------------------------3--2-----|--------------------------|
E|-------------------------------3--|--------------------------|



e|---------------------------|-----------------|-----------------|-15~-------|
B|-18~----------b18r17-15-17-|-17~----------15-|-16~-----18~-----|-----------|
G|---------------------------|------------17---|-----------------|-----------|
D|---------------prebend-----|-----------------|-----------------|-----------|
A|---------------------------|-----------------|-----------------|-----------|
E|---------------------------|-----------------|-----------------|-----------|
 |
 |
e|---------------------------|-----------------|-----------------|
B|---------------------------|-----------------|-----------------|
G|-0--0--0--0--0--0--0--0----|-0-0-0-0-0-0-0-0-|-0-0-0-0-0-0-0-0-| play chorus
D|-0--0--0--0--0--0--0--0----|-0-0-0-0-0-0-0-0-|-0-0-0-0-0-0-0-0-| immediately
A|---------------------------|-----------------|-----------------|
E|---------------------------|-----------------|-----------------| 





Play Chorus (start this as indicated above)


Outro Solo, Rhythm Part
e|-----------------|-----------------|-----------------|-----------------|
B|-----------------|-----------------|-----------------|-----------------|
G|-----------------|-5---5-----------|-----------------|-5---5-----------|
D|-5---5---3---3---|-5---5---3---3---|-5---5---3---3---|-5---5---3---3---|
A|-5---5---3---3---|-3---3---3---3---|-5---5---3---3---|-3---3---3---3---|
E|-3---3---1---1---|---------1---1---|-3---3---1---1---|---------1---1---|


e|-----------------|-----------------|
B|-----------------|-----------------|
G|-----------------|-8---8---5---5---|
D|-5---5---3---3---|-8---8---5---5---| end of rhythm part, but it
A|-5---5---3---3---|-6---6---3---3---| repeats several times over
E|-3---3---1---1---|-----------------|



Outro Solo (3:24)
e|--------------------|---------------------------|---------------------------|
B|--------------------|---------------------------|---------------------------|
G|--------------------|-3qb--0--------------------|---------------------------|
D|-3h5-5-5~~------3---|---------5--3--------------|-3PH-3h5-5~--3-3h5------3--|
A|------------------5-|---------------3-3--3h5-5--|---------------------------|
E|--------------------|---------------------------|---------------------3-----|


e|------------------------------|-------------------------------|
B|------------------------------|-3------------6----------------|
G|-------3----3h5-5b6r5-3---5---|-3----5-3-5b7---b7r5p3--5~-3h5-|
D|-5-------5--------------5---5-|-------------------------------|
A|------------------------------|-------------------------------|
E|----3-------------------------|-------------------------------|


e|-------------------------------------|------------------------|
B|-----3-------------------------------|-----------6-6-6--6-6-5-|
G|-5b6---b6r5-3-5--3-----3-3-2-2-----0-|-5h7--------------------|
D|-------------------5-----------0-0---|-----5--5---------------|
A|-------------------------------------|------------------------|
E|-------------------------------------|------------------------|

e|---------------------------3----3------3----3-|-------3------3----3-------|
B|-6b8--6-3----------------3---6b8-----3---6b8--|-6b8~~--6b8----6b8---------|
G|----------6-5-5~-3p0--5b7---------5b7---------|---------------------3qb---|
D|----------------------------------------------|-------------------------5-|
A|----------------------------------------------|---------------------------|
E|----------------------------------------------|---------------------------|

(3:55)
e|---------3---------------------------|---------------------------------------|
B|----------6p3----------6---6---------|-----8--8-8-----11p8-8-8--11p8-8-8\6---|
G|-6p5p3h5-----5p3h5--/7---7---5\3--3--|-5b7---------10----------------------7-|
D|--------------------------------5--5-|---------------------------------------|
A|-------------------------------------|---------------------------------------|
E|-------------------------------------|---------------------------------------|


e|------13-----------------11b13--11----------------|
B|-13b15---11-13~-11-13p11----------13-11h13p11--13-|
G|---------------------------------------------12---|
D|--------------------------------------------------|
A|--------------------------------------------------|
E|--------------------------------------------------|

e|------------------------------------|
B|-11b12------------------------------|
G|------12-12~----12-12---12-12\---12-|
D|--------------14------14-------14---|
A|------------------------------------|
E|------------------------------------|

e|-----------------------------------------------------------|
B|-----------------------------------------------------------|
G|-14p12---15p14-14p12-15p14-14p12-15p14-14p12-15p14-14p12---|
D|------14------------------------------------------------14-|
A|-----------------------------------------------------------|
E|-----------------------------------------------------------|

e|----------------------------------13-13-------13-------|
B|------15----13p11-b14r13p11--13b15------13b15---13b15--|
G|-12-----15~--------------------------------------------|
D|-------------------------------------------------------|
A|-------------------------------------------------------|
E|-------------------------------------------------------|

e|-13-------13---------------------------------------|
B|----13b15----13b15r13-11-13p11-11p10------------11-|
G|------------------------------------12----10-12----|
D|---------------------------------------12----------|
A|---------------------------------------------------|
E|---------------------------------------------------|

(4:19)
e|----------------------------------------------------------|
B|-11qb---------11qb----------------------17---------17p15--|
G|------12p10--------12p10----17b18r17-15-17----15~--17p15--|
D|-----------12-----------12-----------------17-------------|
A|----------------------------------------------------------|
E|----------------------------------------------------------|

e|---------------------------------------------------------|
B|-------------17---------17p15---------18-18--18-18-18-18-|
G|-17b18r17-15-17----15~--17p15--17b19---------------------|
D|---------------------------------------------------------|
A|---------------------------------------------------------|
E|---------------------------------------------------------|

e|----------15---------------------------------------------|
B|-18----17----18-17-15--17-15-----------------------------|
G|---------------------17-----15-14---15-14h15p14----------|
D|---------------------------------17------------17-17\12--|
A|---------------------------------------------------------|
E|---------------------------------------------------------|

e|-------------------------------------------------------------------|
B|-11----------------------------------------------------------------|
G|---12-----12-----12-----------------------------------------10--10-|
D|-----14p12--12h14--15p14-15p14-12-----12-----------------/12--12---|
A|---------------------------------12h13--16-15-13-16-15-13----------|
E|-------------------------------------------------------------------|

fade out



KEY:
h - hammer-on
p - Pull-Off
/ - Slide (uses \ also)
~ - vibrato
qb - quarter bend
b  - bend 
r  - release bend 
PH - pinch harmonic
Suggest correction
What's this?
You can suggest a correction to this tab. Community and Mods will review your correction and vote to approve or reject it.
comments
print report bad tab
3 comments total.
0 reply
SlashWannabe1 540 wrote on September 7 2009, 04:07 pm

Good tab!, Just wanted to correct what you said about panning the parts..

If your stereo is set up default from the factory, Slash will always be in the right speaker or right head phone, unless during a solo which then he will show up in both, but his rhythm & lead parts will always be in the right channel.

0 reply
jdoherty046 21 wrote on May 17 2015, 10:10 am

how can i do a pull off on 0? for example -0P4-?

0 reply
jjhand 10,552 wrote on May 17 2015, 09:37 pm

That was supposed to be a hammer-on. Cut & paste error I guess.

guest
You may want to rate the tab now too:
select rating
Please do not post tabs as comments. Select "correction" instead!