Oops, an error
Loading. Please wait.

Headspace tab

version 4
version 4
28 views 1 this week
no commentswrite comment
1 2 3 4 5
3 more votes to show rating
add to favorites
×
Save as Personal and add changes to this tab that will be seen only by you. Learn more ›
×
You can save this tab as Personal to edit and correct it or add notes. All changes will be seen only by you. Learn more »
launch autoscroll
font size
0
reset
how to read this tab
guitar tuner
backing track
0:00
0:00
edit
Autoscroll
slow
fast
+/-
esc
set tempo
stop
So I noticed there aren't any accurate tabs for Headspace, which is probably the best song off Contraband IMO.
I used the studio version in conjunction with live performances to pin down what is played,
and where on the fretboard. I also isolated the guitars, which helped a lot and used software 
to slow the tempo of the solo while retaining pitch. Therefore, I am confident this is 99% accurate.


[Intro]
(Both guitars)
e|------------------------------------------------------------------| X3
B|------------------------------------------------------------------|
G|------------------------------------------------------------------|
D|------------------------------------------------------------------|
A|-10--10--10--10--10--10--10--10--10--10--10--10--10--9--9--9--9/10|
D|-10--10--10--10--10--10--10--10--10--10--10--10--10--9--9--9--9/10|

e|--------------------------------------------------------| X1
B|--------------------------------------------------------|
G|--------------------------------------------------------|
D|--------------------------------------------------------|
A|-10--10--10--10--10--10--10-10-10-10-10-10--10---10---10|
D|-10--10--10--10--10--10--10-10-10-10-10-10--10---10---10|

[Chorus] X2 
(Both guitars)
e|--------------------------| X3
B|--------------------------|
G|--------------------------|
D|--------------------------|
A|-10h12-10-0-3-0-3-0-3-0-2-|
D|-10h12-10-0-3-0-3-0-3-0-2-|

e|----------------------X-X-X-X-| X1
B|----------------------X-X-X-X-|
G|----------------------X-X-X-X-|
D|----------------------X-X-X-X-|
A|-10h12-10-0-3-0-3-0-3-X-X-X-X-|
D|-10h12-10-0-3-0-3-0-3-X-X-X-X-|

[Fill]
(Slash, w/ Wah)
e|-------------------------|
B|-------------------------|
G|-5/7\5-10-12-13-9--------|
D|-------------------------|
A|-3/5\3--8-10-11-7--------|
D|-------------------------|

[Verse]
(Slash)
e|-----------------X-X-X--------| X7
B|-----------------X-X-X--------|
G|-----------------X-X-X--------|
D|-----------------X-X-X--------|
A|-5h7-7-7-7-7-5-7-X-X-X-7-5-5-5|
D|-5h7-7-7-7-7-5-7-X-X-X-7-5-5-5|

e|--------------------------------------| X1
B|--------------------------------------|
G|--------------------------------------|
D|--------------------------------------|
A|-5h7-7-7-7-7-5-7--10-10-10-10-10-10-10|
D|-5h7-7-7-7-7-5-7--10-10-10-10-10-10-10|

[Verse]
(Kushner, Clean)
e|--0--------0--------0--------0------------| X2
B|--5--------5--------5--------6------------|
G|--6--------4--------6--------7------------|
D|--7--------5--------7--------7------------|
A|------------------------------------------|
D|------------------------------------------|

[Chorus] X2 
(Both guitars)
e|--------------------------| X3
B|--------------------------|
G|--------------------------|
D|--------------------------|
A|-10h12-10-0-3-0-3-0-3-0-2-|
D|-10h12-10-0-3-0-3-0-3-0-2-|

e|----------------------X-X-X-X-| X1
B|----------------------X-X-X-X-|
G|----------------------X-X-X-X-|
D|----------------------X-X-X-X-|
A|-10h12-10-0-3-0-3-0-3-X-X-X-X-|
D|-10h12-10-0-3-0-3-0-3-X-X-X-X-|

[Verse]
(Slash)
e|-----------------X-X-X--------| X7
B|-----------------X-X-X--------|
G|-----------------X-X-X--------|
D|-----------------X-X-X--------|
A|-5h7-7-7-7-7-5-7-X-X-X-7-5-5-5|
D|-5h7-7-7-7-7-5-7-X-X-X-7-5-5-5|

e|---------------------------------------| X1
B|---------------------------------------|
G|---------------------------------------|
D|---------------------------------------|
A|-5h7-7-7-7-7-5-7--10-10-10--10--10--10-|
D|-5h7-7-7-7-7-5-7--10-10-10--10--10--10-|

[Verse]
(Kushner, Clean)
e|--0--------0--------0--------0------------| X2
B|--5--------5--------5--------6------------|
G|--6--------4--------6--------7------------|
D|--7--------5--------7--------7------------|
A|------------------------------------------|
D|------------------------------------------|

[Chorus] X2 
(Both guitars)
e|--------------------------| X3
B|--------------------------|
G|--------------------------|
D|--------------------------|
A|-10h12-10-0-3-0-3-0-3-0-2-|
D|-10h12-10-0-3-0-3-0-3-0-2-|

e|----------------------X-X-X-X-| X1
B|----------------------X-X-X-X-|
G|----------------------X-X-X-X-|
D|----------------------X-X-X-X-|
A|-10h12-10-0-3-0-3-0-3-X-X-X-X-|
D|-10h12-10-0-3-0-3-0-3-X-X-X-X-|

[Bridge]
(Slash)
e|---------------------------------| X3
B|---------------------------------|
G|---------------------------------|
D|-3p0-----0-----0-----0---0-0-0---|
A|-----3-5---3-5-----3---3-------3-|
D|---------------------------------|

e|--------------------------------| X1
B|--------------------------------|
G|--------------------------------|
D|-3p0-----0-----0-----0---0------|
A|-----3-5---3-5-----3---3---3----|
D|-----------------------------3~~|

e|---------------------------------| X4
B|---------------------------------|
G|---------------------------------|
D|-3p0-----0-----0-----0---0-0-0---|
A|-----3-5---3-5-----3---3-------3-|
D|---------------------------------|

     (Rapid Picking)
e|-------------------------| X1
B|-------------------------|
G|---7--9--10--12--14------|
D|-------------------------|
A|---5--7--8---10--12------|
D|-------------------------|

[Bridge]
(Kushner)
e|--------------------------------------------| X2
B|--3-----------------------------------------|
G|--2-----------------------------------------|
D|--0-----------------------------------------|
A|--0----------3----------10-10-10-10-8-8-8-8-|
D|--0----------3----------10-10-10-10-8-8-8-8-|

e|-------------------------| X1
B|-------------------------|
G|-------------------------|
D|-------------------------|
A|-----8-8-8-8-------------|
D|-----8-8-8-8-------------|

[Solo]
 (Full)(Hold Bend, Rapid Picking)
e|------------------------------------------------|
B|------------------------------------------------|
G|------------------------------------------------|
D|-5b----5-5-5-5-5-5-5-5-5-5-5-5--5brb-p3---3-----|
A|----------------------------------------5-------|
D|------------------------------------------------|

 (1)                     (Full)
e|--------------------------10--------10----------------------------------------------------------|
B|-15brb-10h13-13-13~~---------13b-------13p10-13p12p10----12----10h12p10-------------------------|
G|------------------------------------------------------12----12----------12-pb12r-p10----12----10|
D|-------------------------------------------------------------------------------------12----12---|
A|------------------------------------------------------------------------------------------------|
D|------------------------------------------------------------------------------------------------|

    (Full bend)
e|--------------------------------------------------|
B|--------------------------------------------------|
G|--------------------------------------------------|
D|------------------------------5b-3-5---3h5p3p0-3~~|
A|--------------------------3h5--------5------------|
D|-5b-----------rb--3h5p3p0-------------------------|

e|------------------------------5-8p7/10-8h10p8/7----8----7h8p7----|
B|------------------5h6p5---5h6-------------------10---10-------10-|
G|----4h5p4---4h5h7-------7----------------------------------------|
D|-/7-------7------------------------------------------------------|
A|-----------------------------------------------------------------|
D|-----------------------------------------------------------------|

e|--7/8h12-8h10h12-8/10h13-10h12----10-12-13p10----10-----10-----------------------------|
B|-------------------------------13-------------13----13b----13p10-----------------------|
G|-----------------------------------------------------------------pb12r-p10--10p12-12b~~|
D|---------------------------------------------------------------------------------------|
A|---------------------------------------------------------------------------------------|
D|---------------------------------------------------------------------------------------|

(Live Performance)
In live performances, Slash plays around the general structure of this solo, but not note-for-note.

On the Houston DVD, for the difficult hammer-on parts (above), he simpllifies it into the following:

e|---------------7-7h8h10-8h10h12-10h12h13-10h12h13-|
B|-5h6h8/10-8h10------------------------------------|
G|--------------------------------------------------|
D|--------------------------------------------------|
A|--------------------------------------------------|
D|--------------------------------------------------|

In Tokyo, he played:

e|-------5h7h8-7h8/10-7h8h10-8h10/12-8h10h12-10h12/13-10h12h13-|
B|-5h6h8-------------------------------------------------------|
G|-------------------------------------------------------------|
D|-------------------------------------------------------------|
A|-------------------------------------------------------------|
D|-------------------------------------------------------------|

[Verse]
(Alternate end fill)
e|-------------------------| X1
B|-------------------------|
G|-------------------------|
D|-------------------------|
A|-5h7-7-7-7-7-5-7--7-10---|
D|-5h7-7-7-7-7-5-7--7-10---|

***********************************
| /   Slide up
| \   Slide down
| h   Hummer-on
| p   Pull-off
| ~   Vibrato
| b   Bend
| pb  Pre-bend
| br  Bend release
***********************************

            
            
Suggest correction
Creating personal tab
Creating personal tab
You can edit any tab online and save it as your Personal.

You can edit, replace or remove any tab part or add personal notes – all changes will be seen only by you.

Personal tabs can be accessed anytime from any device, even offline.
Learn more »
Give kudos to tab author, rate the tab!
1 2 3 4 5
comments
print report bad tab
guest
You may want to rate the tab now too:
select rating
Wanna post a correction for this tab? Suggest correction