Oops, an error
Loading. Please wait.

Just Sixteen Tab

version 1
version 1

Whole song

6,873 views 3 this week
3 commentsread comments
1 2 3 4 5
x 8
add to favorites
launch autoscroll
font size
0
reset
how to read this tab
guitar tuner
×
Best way to learn
"Just Sixteen"
Autoscroll
slow
fast
+/-
esc
set tempo
stop
INTRO

e---------------------------------|
h---------------------------------|
g---------------------------------|
d--9--9----9-9----9--9--7-9-7-----|  4x
a--9--9----9-9----9--9-------9----|
d--9--9----9-9----9--9------------|

And Slash plays

e----------------------------    ---------------------|
h----------------------------    --19-19---17-19-17---|
g--16-16---14-16\14----------    --16-16---14-16-14---|
d---------------------------- 6x ---------------------| 2x
a--14-14---12-14\12----------    ---------------------|
d----------------------------    ---------------------|

VERSE

*Slash*

e---------------------------------------------------------|
h---------------------------------------------------------|
g--------------------------9b'-7-7------------------------|
d-------------------------------9-------------------------|
a--9--9-11--9-11---9--9-11-----------11--9-11---9--9-11---|
d--9--9--9--9--9---9--9--9------------9--9--9---9--9--9---|

I cant wrote down the rhythmpart, so lisen to the rhythm.

PRE

e---------------------------------------------------|
h---------------------------------------------------|
g---------------------------------------------------|
d--4-4-x-4--4-4-x-4--4-4-x-4--4-4-2-2-2--4-4-x-4----|
a--4-4-x-4--4-4-x-4--4-4-x-4--4-4-2-2-2--4-4-x-4----|
d--4-4-x-4--4-4-x-4--4-4-x-4--4-4-2-2-2--4-4-x-4----|

CHORUS

Dave and slash (slash 1 and 2)

e-------------------------------------------------------------------------|
h-------------------------------------------------------------------------|
g-------------------------------------------------------------------------|
d--9-9-9-9-9-9-9-9-9-9-9-9---5-5-5---12-12-12-12-12-12-12-12-12-12-12-12--|
a--9-9-9-9-9-9-9-9-9-9-9-9---5-5-5---12-12-12-12-12-12-12-12-12-12-12-12--|
d--9-9-9-9-9-9-9-9-9-9-9-9---5-5-5---12-12-12-12-12-12-12-12-12-12-12-12--|

e-------------------------------------------------------------------------|
h-------------------------------------------------------------------------|
g-------------------------------------------------------------------------|
d--7-7-7------9-9-9-9-9-9-9-9-9-9-9-9---5-5-5---7-7-7-7-7-7-7-7-7-7-7-7---|
a--7-7-7------9-9-9-9-9-9-9-9-9-9-9-9---5-5-5---7-7-7-7-7-7-7-7-7-7-7-7---|
d--7-7-7------9-9-9-9-9-9-9-9-9-9-9-9---5-5-5---7-7-7-7-7-7-7-7-7-7-7-7---|

e---------|
h---------|
g---------|
d--0-0-0--| 2x
a--0-0-0--|
d--0-0-0--|

slash 3 and 4

e---------------------|
h---------------------|
g-------7-7-9b-9-7----|
d---9-9--9------------| 2x
a---------------------|
d---------------------|

PRE SOLO

Slash

   1                      2
e-----------------     ---------------------|
h-----------------     ---------------------|
g-----------------     ---------------------|
d------5-5-------- 8x  ------6-7-6----------| 2x then 1 6x
a--7-7--7-7-5-----     ---7-7-----7-5-7-----|
d-----------------     ---------------------|


Dave

e---------------------------------------------------------------------|
h---------------------------------------------------------------------|
g---------------------------------------------------------------------|
d--2-2-2-2-2-2-2-2--5-5-5-5-5-5-5-5--0-0-0-0-0-0-0-0--7-7-7-7-7-7-7-7-|
a--2-2-2-2-2-2-2-2--5-5-5-5-5-5-5-5--0-0-0-0-0-0-0-0--7-7-7-7-7-7-7-7-|
d--2-2-2-2-2-2-2-2--5-5-5-5-5-5-5-5--0-0-0-0-0-0-0-0--7-7-7-7-7-7-7-7-|

SOLO

Slash Solo (coming up soon. In the mean time, do some realy blueslicks over B# and F#)

Dave

e--------------------        -------------------           ------|
h--------------------        -------------------           ------|
g--------------------        -------------------           ------|
d--9-9-9-9-9-9-9-9-9-        --4-4-4-4-4-4-4-4--           --7-7-|
a--9-9-9-9-9-9-9-9-9-        --4-4-4-4-4-4-4-4--           --7-7-|
d--9-9-9-9-9-9-9-9-9-  24x   --4-4-4-4-4-4-4-4-- 22x  then --7-7-|


OUTROSOLO

e-----7------9-7--9b-7--10-10-7--7------------------------------------|
h----7-10b------7--------------10-10b-7--------------------7-7--9-7---|
g--9b----------------------------------9b-7-9-7-9--9b7-9---7-7--9-7---|
d--------------------------------------------9-----------9------------|
a---------------------------------------------------------------------|
d---------------------------------------------------------------------|

e-------------------------------------------10--------10-12b-10-12---10--|
h----7-10--------------------10-----------10--12-10/12-------------12----|
g--9b----9b-7-9-/9-7-9-7-9/11--11\9-7-9/11-------------------------------|
d------------------------------------------------------------------------|
a------------------------------------------------------------------------|
d------------------------------------------------------------------------|

e--12b-10-12--10-10-12-----------------------------77--77--77--77--------|
h-----------12--------12b(13)-10-7-10---------7----77--77--77--77--------|
g------------------------------------9b7--9b--9b--9b--9b--9b--9b--9b-7---|
d---------------------------------------9--------------------------------|
a------------------------------------------------------------------------|
d------------------------------------------------------------------------|

e----------------------------|
h----------------------------|
g--9-/9-7--------------------|
d--------9-7-9---------------|
a---------9---9-8-7-5--------|
d--------------------/9------|

Order:

Intro
Verse
Pre
Chorus
Intro
Verse
Pre
Chorus
Pre Solo
Solo
Chorus with Outrosolo

                                                 Adrian Van Scholze
Suggest correction
comments
print report bad tab
3 comments total.
+1 reply
canadian-vr-fan 52 Aug 29, 2007 04:22 PM

i am almost 100% positive it is not in drop d, and in the prechorus there are full bar chords as in bar all six strings, also in the verse it seems that there is another note in the leads that slash play. its not too bad though:)

+1 reply
79th 32 Feb 11, 2008 12:33 PM

It's not in drop D and slash plays intro riff one string lower and verse is like this:


e--------------------------------------|
h--------------------------------------|
g-------------------------10/9/8/7---8-|
d-----------------------9----------7---| x 7
a--9-11--9--11-9--9--9-----------------|
e--7--7--7---7-7--7--7-----------------|


e-----------------------------------|
h-----------------------------------|
g-------------------10/8-10/9/8/7---|
d-----------------9---------------7-| 8th time
a--9-11--9--11-9--------------------|
e--7--7--7---7-7--------------------|

0 reply
kellynickels 3,014 Oct 16, 2013 11:32 AM

half step down....

guest
You may want to rate the tab now too:
select rating
Wanna post a correction for this tab? Suggest correction