Oops, an error
Loading. Please wait.

Just Sixteen Tab

version 2
version 2

Whole song

3,691 views 1 this week
1 commentread comment
1 2 3 4 5
x 4
add to favorites
launch autoscroll
font size
0
reset
how to read this tab
guitar tuner
Autoscroll
slow
fast
+/-
esc
set tempo
stop
Help us to improve Ultimate-Guitar.com Take our survey!
×
Author
Just Sixteen (Guitar Tab) by Velvet Revolver

  Tuning: (Drop D) D A D G B E


 Intro
  Kushner (All 8 times)  and Slash (4 times) Play
  Fig 1
 e|-------------------|      
 b|-------------------|       
 g|-16-16-14-16-14-16-|         
 d|--x--x--x--x--x--x-| x8   
 a|-14-14-12-14-12-14-|         
 D|-------------------|

  
 Then Slash Plays this during second hallf of first figure
 Fig 2
 e|-------------------|
 b|-19-19-17-19/17-19-|
 g|-16-16-14-16/14-16-|  
 d|-------------------|   x4
 a|-------------------|
 D|-------------------|


 e|------------------------------------|
 b|-19-17-x---12~----------------------|
 g|-16-14-x-------------9brp7---8~-----|
 d|---------------------------9--------|
 a|------------------------------------|
 D|------------------------------------|

 Duff Plays other parts in backround of intro
  
  Verse
 e|----------------------------------------|
 b|----------------------------------------|
 g|----------------------------9brp7---8~--|
 d|----------------------------------9-----| x8
 a|-9--9-11--9-9-11--9--9-11---------------|
 D|-9--9-9---9-9-9---9--9-9----------------|


 Pre-Chorus
 |------------------------------------|
 |------------------------------------|
 |------------------------------------|
 |-4-4-x-4--4-x-4-4--4-x-4-4---2-2-2--| x3
 |-4-4-x-4--4-x-4-4--4-x-4-4---2-2-2--|
 |-4-4-x-4--4-x-4-4--4-x-4-4---2-2-2--|
 
 
 |-----------------------------------------|
 |-----------------------------------------|
 |-----------------------------------------|
 |-4-4-x-4--4-x-4-4--4-x-4-4-4-7-7-7-7-7-7-|
 |-4-4-x-4--4-x-4-4--4-x-4-4-4-7-7-7-7-7-7-|
 |-4-4-x-4--4-x-4-4--4-x-4-4-4-7-7-7-7-7-7-|


 Chorus
 |---------------------------------------------------------------|
 |---------------------------------------------------------------|
 |---------------------------------------------------------------|
 |-9-9-9-9-9-9-9-9-9-9-9-9--5-5-5--12-12-12-12-12-12-12-12-12-12-|
 |-9-9-9-9-9-9-9-9-9-9-9-9--5-5-5--12-12-12-12-12-12-12-12-12-12-|
 |-9-9-9-9-9-9-9-9-9-9-9-9--5-5-5--12-12-12-12-12-12-12-12-12-12-|

 
 |----------------------------------------------------------------|
 |----------------------------------------------------------------|
 |----------------------------------------------------------------|
 |-7-7-7--9-9-9-9-9-9-9-9-9-9-9-9--5-5-5--7-7-7-7-7-7-7-7-7-7-7-7-|
 |-7-7-7--9-9-9-9-9-9-9-9-9-9-9-9--5-5-5--7-7-7-7-7-7-7-7-7-7-7-7-|
 |-7-7-7--9-9-9-9-9-9-9-9-9-9-9-9--5-5-5--7-7-7-7-7-7-7-7-7-7-7-7-|


 |---------|
 |---------|
 |--9-9-9--|
 |--9-9-9--| x2
 |--7-7-7--|
 |---------|


  Fig 1
 e|-------------------|      
 b|-------------------|       
 g|-16-16-14-16-14-16-|         
 d|--x--x--x--x--x--x-| x4   
 a|-14-14-12-14-12-14-|         
 D|-------------------|
                                    
                              Same as intro
 Fig 2
 e|-------------------|
 b|-19-19-17-19-17-19-|
 g|-16-16-14-16-14-16-|  
 d|-------------------|   x2
 a|-------------------|
 D|-------------------|      


 e|------------------------------------|
 b|-19-17-x---12~----------------------|
 g|-16-14-x-------------9brp7---8~-----|
 d|---------------------------9--------|
 a|------------------------------------|
 D|------------------------------------|

 
   Verse
 e|----------------------------------------|
 b|----------------------------------------|
 g|----------------------------9brp7---8~--|
 d|----------------------------------9-----| x8
 a|-9--9-11--9-9-11--9--9-11---------------|
 D|-9--9-9---9-9-9---9--9-9----------------|


 Pre-Chorus
 |------------------------------------|
 |------------------------------------|
 |------------------------------------|
 |-4-4-x-4--4-x-4-4--4-x-4-4---2-2-2--| x3
 |-4-4-x-4--4-x-4-4--4-x-4-4---2-2-2--|
 |-4-4-x-4--4-x-4-4--4-x-4-4---2-2-2--|
 
 
 |-----------------------------------------|
 |-----------------------------------------|
 |-----------------------------------------|
 |-4-4-x-4--4-x-4-4--4-x-4-4-4-7-7-7-7-7-7-|
 |-4-4-x-4--4-x-4-4--4-x-4-4-4-7-7-7-7-7-7-|
 |-4-4-x-4--4-x-4-4--4-x-4-4-4-7-7-7-7-7-7-|


 Chorus
 |---------------------------------------------------------------|
 |---------------------------------------------------------------|
 |---------------------------------------------------------------|
 |-9-9-9-9-9-9-9-9-9-9-9-9--5-5-5--12-12-12-12-12-12-12-12-12-12-|
 |-9-9-9-9-9-9-9-9-9-9-9-9--5-5-5--12-12-12-12-12-12-12-12-12-12-|
 |-9-9-9-9-9-9-9-9-9-9-9-9--5-5-5--12-12-12-12-12-12-12-12-12-12-|

 
 |----------------------------------------------------------------|
 |----------------------------------------------------------------|
 |----------------------------------------------------------------|
 |-7-7-7--9-9-9-9-9-9-9-9-9-9-9-9--5-5-5--7-7-7-7-7-7-7-7-7-7-7-7-|
 |-7-7-7--9-9-9-9-9-9-9-9-9-9-9-9--5-5-5--7-7-7-7-7-7-7-7-7-7-7-7-|
 |-7-7-7--9-9-9-9-9-9-9-9-9-9-9-9--5-5-5--7-7-7-7-7-7-7-7-7-7-7-7-|


 |---------|
 |---------|
 |---------|
 |--x-x-x--| x2
 |--x-x-x--|
 |--x-x-x--|

 
  Pre-solo
 |-----------------------------------------------------|
 |----------------------------8-8-8--8-8---8-8-8--8-8--|
 |-9-9-9--9-9--9-9-9--9-9-----7-7-7--7-7---7-7-7--7-7--|
 |-9-9-9--9-9--9-9-9--9-9-----5-5-5--5-5---5-5-5--5-5--|
 |-7-7-7--7-7--7-7-7--7-7------------------------------|           
 |-----------------------------------------------------|     these parts
                                                                   x2

 |-------------------------------------------------------------|
 |---------------------------10-10-10--10-10--10-10-10--10-10--|
 |-7-7-7--7-7--7-7-7--7-7----9--9--9---9--9---9--9--9---9--9---|
 |-7-7-7--7-7--7-7-7--7-7----7--7--7---7--7---7--7--7---7--7---|
 |-5-5-5--5-5--5-7-5--5-5--------------------------------------|
 |-------------------------------------------------------------|

 On First time
 |----------------|
 |----------------|
 |-----7-7-9b-7---|
 |-9-9--9-------9-| x2
 |----------------|
 |----------------|


 On Second time
 |------------|
 |------------|
 |------------|
 |-----5-5----| x8
 |-7-7--7-7-5-|
 |------------|


 |---------------|
 |---------------|
 |-------------5-|
 |-7-7-7-7-7-7---|
 |---------------|
 |---------------|


 Solo
 |-7-7-----7-7------10-x-10-----7---------------------------|
 |-7-7-----7-7------10-x-10-----7-9br-7-9-9br-7-9-9br-7-9---|
 |-----8/9------8/9---------8/9---9br-7-9-9br-7-9-9br-7-9---|
 |--------------------------------------------------------9-|
 |----------------------------------------------------------|
 |----------------------------------------------------------|


 |------------------------------------------7--------------------|
 |------------------------4-4-----------4---7------------4-------|
 |----------------7p4-7p4-----6p4h6---4-6fb---pb6r-4-6p4---4h6-4-|
 |----------4-4-7-------------------6----------------------------|
 |-2~~-5-6---6---------------------------------------------------|
 |---------------------------------------------------------------|


 |------3----3-------3----------------------------------------------|
 |----3------3---6fb---6p3---3p1----------3-3---3-3---3-3-----------|
 |-5b-----5b---------------5-----3-3qb----3-3---3-3---3-3-----------|
 |-------------------------------------5------5-----5-----5-3---3-5-|
 |------------------------------------------------------------5-----|
 |------------------------------------------------------------------|


 |-----3--------------------3----------|
 |-----3-pb6rp3h6-6---3-----3-6p3---3--|
 |-5fb--------------5----5fb------5----|
 |-------------------------------------|
 |-------------------------------------|
 |-------------------------------------|

 |-5h7h9p5h7h9p5-9h11p9h11h12p9-11h12h14p11h12h14----/14-13b(14)-|
 |------------------------------------------------14-------------|
 |---------------------------------------------------------------|
 |---------------------------------------------------------------|
 |---------------------------------------------------------------|
 |---------------------------------------------------------------|
 

 
 Chorus
 |---------------------------------------------------------------|
 |---------------------------------------------------------------|
 |---------------------------------------------------------------|
 |-9-9-9-9-9-9-9-9-9-9-9-9--5-5-5--12-12-12-12-12-12-12-12-12-12-|
 |-9-9-9-9-9-9-9-9-9-9-9-9--5-5-5--12-12-12-12-12-12-12-12-12-12-|
 |-9-9-9-9-9-9-9-9-9-9-9-9--5-5-5--12-12-12-12-12-12-12-12-12-12-|

 
 |----------------------------------------------------------------|
 |----------------------------------------------------------------|
 |----------------------------------------------------------------|
 |-7-7-7--9-9-9-9-9-9-9-9-9-9-9-9--5-5-5--7-7-7-7-7-7-7-7-7-7-7-7-|
 |-7-7-7--9-9-9-9-9-9-9-9-9-9-9-9--5-5-5--7-7-7-7-7-7-7-7-7-7-7-7-|
 |-7-7-7--9-9-9-9-9-9-9-9-9-9-9-9--5-5-5--7-7-7-7-7-7-7-7-7-7-7-7-|


 |---------|
 |---------|
 |--9-9-9--|
 |--9-9-9--| x2
 |--7-7-7--|
 |---------|


 OUTROSOLO 

 e|-----7------9-7--9b-7--10-10-7--7------------------------------------|
 h|----7-10b------7--------------10-10b-7--------------------7-7--9-7---|
 g|--9b----------------------------------9b-7-9-7-9--9b7-9---7-7--9-7---|
 d|--------------------------------------------9-----------9------------|
 a|---------------------------------------------------------------------|
 D|---------------------------------------------------------------------| 

 e|-------------------------------------------10--------10-12b-10-12---10--|
 h|----7-10--------------------10-----------10--12-10/12-------------12----|
 g|--9b----9b-7-9-/9-7-9-7-9/11--11\9-7-9/11-------------------------------|
 d|------------------------------------------------------------------------|
 a|------------------------------------------------------------------------|
 D|------------------------------------------------------------------------|

 e|--12b-10-12--10-10-12-----------------------------77--77--77--77--------|
 h|-----------12--------12b(13)-10-7-10---------7----77--77--77--77--------|
 g|------------------------------------9b7--9b--9b--9b--9b--9b--9b--9b-7---|
 d|---------------------------------------9--------------------------------|
 a|------------------------------------------------------------------------|
 D|------------------------------------------------------------------------|

 e|----------------------------|
 h|----------------------------|
 g|--9-/9-7--------------------|
 d|--------9-7-9---------------|
 a|---------9---9-8-7-5--------|
 D|--------------------/9------|


  Outro
 |---------------------------------------------------------------|
 |---------------------------------------------------------------|
 |---------------------------------------------------------------|
 |-9-9-9-9-9-9-9-9-9-9-9-9--5-5-5--12-12-12-12-12-12-12-12-12-12-|
 |-9-9-9-9-9-9-9-9-9-9-9-9--5-5-5--12-12-12-12-12-12-12-12-12-12-|
 |-9-9-9-9-9-9-9-9-9-9-9-9--5-5-5--12-12-12-12-12-12-12-12-12-12-|

 
 |----------------------------------------------------------------|
 |----------------------------------------------------------------|
 |----------------------------------------------------------------|
 |-7-7-7--9-9-9-9-9-9-9-9-9-9-9-9--5-5-5--7-7-7-7-7-7-7-7-7-7-7-7-|
 |-7-7-7--9-9-9-9-9-9-9-9-9-9-9-9--5-5-5--7-7-7-7-7-7-7-7-7-7-7-7-|
 |-7-7-7--9-9-9-9-9-9-9-9-9-9-9-9--5-5-5--7-7-7-7-7-7-7-7-7-7-7-7-|


 |---------|
 |---------|
 |--9-9-9--|
 |--9-9-9--| x2
 |--7-7-7--|
 |---------|
 
 
Suggest correction
comments
print report bad tab
1 comment total.
0 reply
slash4114 40 Jul 31, 2008 12:22 PM

im sorry but this is in standard tuning. look up a video of slash playing this live on youtube. he plays the power chords in the verse like a standard power chord.

guest
You may want to rate the tab now too:
select rating
Wanna post a correction for this tab? Suggest correction