Oops, an error
Loading. Please wait.

Last Fight Tab

version 2
version 2

Intro

Whole song

Interactive

6,833 views 6 this week
4 commentsread comments
1 2 3 4 5
x 7
add to favorites
launch autoscroll
font size
0
reset
how to read this tab
guitar tuner
Autoscroll
slow
fast
+/-
esc
set tempo
stop
Help us to improve Ultimate-Guitar.com Take our survey!
×
Author
Difficulty
intermediate
-------------------------------------------------------------------------------
			     Last Fight – Velvet Revolver
-------------------------------------------------------------------------------
Tabbed by: Anthony Giacco
Email:tonymeatballs@aol.com

Tuning: standard  I think Slash drop’s his guitar a ½ step so if u wanna play like him 
tune down and move all notes up ½ step.

This is my first tab, and I’m sure there’s some mistakes, I’m gunna try to figure out 
verse some other time.

e|----------------12-------------------12---------------12-10----------------|
B|-------------15----15----15------12----------12----12----------------------|
G|----------14----------14-----13------------13--13--------------------------|
D|-12------------------------------------------------------------------------|
A|---------------------------------------------------------------------------|
E|---------------------------------------------------------------------------|

e|-------10------12-----10----------/14~~-/14~~-14-13-12---10~~--------------|
B|----12----------------------------/15~~-/15~~-15-14-13---10~~--------------|
G|-12--------12------12----12------------------------------11~~--------------|
D|---------------------------------------------------------12~~--------------|
A|---------------------------------------------------------------------------|
E|---------------------------------------------------------------------------|
	Here’s a little part Slash does after the first chorus
e|---------------------------------------------------------------------------|
B|---------------------------------------------------------------------------|
G|-1/2~-2~----2----1/2--4----------------------------------------------------|
D|---------4-----4----------2--4-4--2-2p0-0-----0------2/4—4~~---------------|
A|-------------------------------------------2----2--------------------------|
E|---------------------------------------------------------------------------|

| /  slide up
| \  slide down
| h  hammer-on
| p  pull-off
| ~  vibrato
| +  harmonic
| x  Mute note
===============================================================================
Suggest correction
comments
print report bad tab
4 comments total. Showing first comments.
0 reply
italynlprkn 30 Jul 12, 2007 02:38 PM

one word...this is ****ing amazing.

much better than the other tabs.

0 reply
yorkshireterror 10 Jul 19, 2007 02:56 PM

yeah i like it alot. this song is great.

0 reply
Jackhawk9000 10 Aug 09, 2007 09:51 PM

I think this is the best tab I've seen for this song. Keep it up!

guest
You may want to rate the tab now too:
select rating
Wanna post a correction for this tab? Suggest correction