Oops, an error
Loading. Please wait.

Last Fight Tab

version 1
version 1

Solo

Whole song

Interactive

7,008 views 1 this week
no commentswrite comment
1 2 3 4 5
please rate
add to favorites
launch autoscroll
font size
0
reset
how to read this tab
guitar tuner
Autoscroll
slow
fast
+/-
esc
set tempo
stop
Help us to improve Ultimate-Guitar.com Take our survey!
×
Author
Difficulty
intermediate
Tune down 1/2 step (I guess...)


      H          E.   S S  S  S  S    Q     E    S  E.  S  S S  S S  S    E   S S  Q.       S S  S S  S S  
E||--------------------------------|-----------------------------------|----------------------------------|
B||------------------11---11p-8----|-----------------------------------|--------------------8-9-11-8------|
G||--10b~--------L--------------10-|--8----10p~--8-10---8----8-10-8----|--8--10-8-10b~---------------10-8-|
D||--------------------------------|----------------------10--------10-|----------------------------------|
A||--------------------------------|-----------------------------------|----------------------------------|
E||--------------------------------|-----------------------------------|----------------------------------|


   E  Q    S   S  S  Q     E.       H         E    S  S  Q         E   S   S  S  S  S  S  S  E    E    E    S  
-----------------11p-9~---------|--------------------15-18b~----|--L--18b-16-15----------18-------------------|
---------------------------8s---|--16~--------L--/16------------|---------------18-16-------18b--18b--18b--16-|
--10--8----Ls-10----------------|-------------------------------|---------------------17----------------------|
--------------------------------|-------------------------------|---------------------------------------------|
--------------------------------|-------------------------------|---------------------------------------------|
--------------------------------|-------------------------------|---------------------------------------------|


                  |---3--|                                                                                             
   S  S  E.    S  S  S   S  S  E.    S   S  S  S     E   E    S  E    S  E    S  E    S  S   S     W                   
-------------------------------------------------|------14---14-14---14-14---14-14---14--------|---------------------||
--18-----------------------16-18b---18b--L-16----|--16--16b--16-16b--16-16b--16-16b-----16p-14-|--16~----------------||
-----17-19b~---L----17h-19--------------------17-|---------------------------------------------|---------------------||
-----------------18------------------------------|---------------------------------------------|---------------------||
-------------------------------------------------|---------------------------------------------|---------------------||
-------------------------------------------------|---------------------------------------------|---------------------||
Suggest correction
What's this?
You can suggest a correction to this tab. Community and Mods will review your correction and vote to approve or reject it.
comments
We did not receive enough feedback on this tab! Please rate:
print report bad tab
1 2 3 4 5
guest
You may want to rate the tab now too:
select rating
Please do not post tabs as comments. Select "correction" instead!