Oops, an error
Loading. Please wait.

Last Fight Tab

version 2
version 2

Whole song

Interactive

55,699 views 9 this week
22 commentsread comments
1 2 3 4 5
x 39
add to favorites
launch autoscroll
font size
0
reset
how to read this tab
guitar tuner
Autoscroll
slow
fast
+/-
esc
set tempo
stop
Help us to improve Ultimate-Guitar.com Take our survey!
×
Author
Difficulty
intermediate
THE LAST FIGHT
As recorded by Velvet Revolver
(From the 2007 album LIBERTAD)

Word and Music by Scott Weiland, Slash, Dave Kushner, Duff McKagan, Matt Sorum

Gtr I (E A D G B E) - Slash Ryhthm and Lead clean electric
Gtr II (E A D G B E) – Dave Kushner Rhythm clean electric 
Gtr III (E A D G B E) – Slash Rhythm clean electric w/chorus
Gtr IV (E A D G B E) – Dave Kushner Rhythm clean electric w/chorus
Gtr V (E A D G B E) – Slash Lead w/dist 

Intro

Gtr I
|-----------12-------------12------------12---------------|
|--------15----15-------12------------12----15-----12-15--|
|-----14----------14-13--------13--13-----------12--------|
|-12-----------------------------14-----------------------|
|---------------------------------------------------------|
|---------------------------------------------------------|


|---12---------/14-14--14-13-12-(10)--------12-------|
|--------15----/15-15--15-14-13--10------15----15----|
|-12--12----12-/14-14--14-13-12--11---14---------14--|
|--------------------------------12------------------|
|----------------------------------------------------|
|----------------------------------------------------|
|Gtr IV
|------------------------------|---------------------|
|------------------------------|-3-------------------|
|------------------------------|-2-------------------|
|------------------------------|-0-------------------|
|------------------------------|---------------------|
|------------------------------|---------------------|

|-------12------------12----|------------12----------|
|----12------------12----15-|----12-15--------15-----|
|-13-------13---13----------|-12------12---12----12--|
|------------14-------------|------------------------|
|---------------------------|------------------------|
|---------------------------|------------------------|
|
|-0-------------------------|-3----------------------|
|-0-------------------------|-3----------------------|
|-1-------------------------|-0----------------------|
|-2-------------------------|-0----------------------|
|---------------------------|------------------------|
|---------------------------|-3----------------------|


|-/14-/14---------------|
|-/15-/15---------------|
|-/14-/14---------------|
|-----------------------|
|-----------------------|
|-----------------------|
|
|-2---------------------|
|-3---------------------|
|-2---------------------|
|-0---------------------|
|-----------------------|
|-----------------------|

Verse I (all the chords played with light palm muting)
Both Gtr I and Gtr II
A                        Bm         
|-----------------------|--------------------------------|
G                        D                                 x 2
|-----------------------|--------------------------------|

Pre-Chorus 

E               G  
|--------------|-----------------------------------------|




Chorus
Gtr I
|-2-----------12------|-------12-------------12-----|
|-3-3------15---15----|----12-------------12----15--|
|-2-2--/14---------14-|-13-------13----13-----------|
|-0-0-----------------|-------------14--------------|
|---------------------|-----------------------------|
|---------------------|-----------------------------|
Gtr II
D                      E
|---------------------|-----------------------------|


|------------12---------|-/14----------------13-12--|
|----12-15--------15----|-/15----------------14-13--|
|-12-------12--12----12-|-/14----------------13-12--|
|-----------------------|---------------------------|
|-----------------------|---------------------------|
|-----------------------|---------------------------|
|G                       D   
|-----------------------|---------------------------|


|-10----------12--------|-------12-------------12---|
|-10-------15----15-----|----12-------------12----15|
|-11----14----------14--|-13-------13----13---------|
|-12--------------------|-------------14------------|
|-----------------------|---------------------------|
|-----------------------|---------------------------|
|D                       E
|-----------------------|---------------------------|

|------------12---------|-/14-------------14-13-12--|
|----12-15--------15----|-/15-------------15-14-13--|
|-12-------12--12----12-|-/14-------------14-13-12--|
|-----------------------|---------------------------|
|-----------------------|---------------------------|
|-----------------------|---------------------------|
|G                       D   
|-----------------------|---------------------------|


|(10)-------------------|
|-10--------------------|
|-11--------------------|
|-12--------------------|
|-----------------------|
|-----------------------|
|D
|-----------------------|

Guitar Solo I (Gtr II plays the verse chords)

Gtr V
|----------------------------------------|
|----------------------------------------|
|-/2~------2---2h4-----------------------|
|------2s4---4-----2s=4~---2h4-2---------|
|--------------------------------5-5~----|
|----------------------------------------|

|----------------------------------------|
|----------------------------------------|
|------------------------2h4p2-----------|
|-------2s4~--/7~----2h4-------4/--------|
|-2-5p2----------------------------------|
|----------------------------------------|

Verse II (all the chords played with light palm muting)
Both Gtr I and Gtr II
A                        Bm         
|-----------------------|--------------------------------|
G                        D                                 x 2
|-----------------------|--------------------------------|


Pre-Chorus 

E               G  
|--------------|-----------------------------------------|

Chorus
Gtr I
|-2-----------12------|-------12-------------12-----|
|-3-3------15---15----|----12-------------12----15--|
|-2-2--/14---------14-|-13-------13----13-----------|
|-0-0-----------------|-------------14--------------|
|---------------------|-----------------------------|
|---------------------|-----------------------------|
Gtr II
D                      E
|---------------------|-----------------------------|


|------------12---------|-/14-------------14-13-12--|
|----12-15--------15----|-/15-------------15-14-13--|
|-12-------12--12----12-|-/14-------------14-13-12--|
|-----------------------|---------------------------|
|-----------------------|---------------------------|
|-----------------------|---------------------------|
|G                       D   
|-----------------------|---------------------------|


|-10----------12--------|-------12-------------12---|
|-10-------15----15-----|----12-------------12----15|
|-11----14----------14--|-13-------13----13---------|
|-12--------------------|-------------14------------|
|-----------------------|---------------------------|
|-----------------------|---------------------------|
|D                       E
|-----------------------|---------------------------|

|------------12---------|-/14-------------14-13-12--|
|----12-15--------15----|-/15-------------15-14-13--|
|-12-------12--12----12-|-/14-------------14-13-12--|
|-----------------------|---------------------------|
|-----------------------|---------------------------|
|-----------------------|---------------------------|
|G                       D   
|-----------------------|---------------------------|


|(10)-------------------|
|-10--------------------|
|-11--------------------|
|-12--------------------|
|-----------------------|
|-----------------------|
|D
|-----------------------|

Bridge

Gtr III
|-0-----0-----0-0--|-3-----3--3-3---|
|-0-----0-----0-0--|-3-----3--3-3---|
|-1-----0h1---1-1--|-0-----0--0-0---|
|-2-----2-----2-2--|-0-----0--0-0---|
|-2-----2-----2----|----------------|
|-0--0--0-----0----|-3--3--3--3-----|
|Gtr IV
|------------------|----------------|
|------------------|-12-------------|
|-8----------------|-12-------------|
|-9----------------|-12-------------|
|-7----------------|-10-------------|
|-0----------------|----------------|







Gtr III
|-0-----0-----0-0--|-3-----3--3-3---|
|-0-----0-----0-0--|-3-----3--3-3---|
|-1-----0h1---1-1--|-0-----0--0-0---|
|-2-----2-----2-2--|-0-----0--0-0---|
|-2-----2-----2----|----------------|
|-0--0--0-----0----|-3--3--3--3-----|
|Gtr IV
|------------------|----------------|
|------------------|-12-------------|
|-8----------------|-12-------------|
|-9----------------|-12-------------|
|-7----------------|-10-------------|
|-0----------------|----------------|

Gtr III
|-0-----0-----0-0--|-3-----3--3-3---|
|-0-----0-----0-0--|-3-----3--3-3---|
|-1-----0h1---1-1--|-0-----0--0-0---|
|-2-----2-----2-2--|-0-----0--0-0---|
|-2-----2-----2----|----------------|
|-0--0--0-----0----|-3--3--3--3-----|
|Gtr IV
|------------------|----------------|
|------------------|-12-------------|
|-8----------------|-12-------------|
|-9----------------|-12-------------|
|-7----------------|-10-------------|
|-0----------------|----------------|

Gtr I and Gtr II

Pm----|          ----|
|-------2-2---|--------------|-3---3-3--3-------|
|-3-3-3-3-3---|-2-----2-2-2--|-3-3-3-3--3-------|
|-2-2-2-2-2-0-|-2-2-2-2-2-2--|-0-0-0-0--0-------|
|-0-0-0-0-0-0-|-2-2-2-2-2-2--|-0-0-0-0--0-------|
|-------------|-0-0-0-0-0-0--|------------------|
|-------------|--------------|-3-3---3--3-------|

Guitar solo II (Gtr II plays chorus chords)
Gtr V
|-----------------------------------------------------------|
|-------------------------------------------10-10-----------|
|---------------7---9b10-9-7---7h9-9b11~----------9pb11r9-7~|
|-----7---7-7h9---9----------9------------------------------|
|-7h9---9---------------------------------------------------|
|-----------------------------------------------------------|

|--------------------------------------------------------------|
|--------------------------------------------7-8-9-10----------|
|-9pb11r9p7-9~---7---7h9p7---7~---9-7-9b11~-----------9b10-9-7~|
|------------------9-------9-----------------------------------|
|--------------------------------------------------------------|
|--------------------------------------------------------------|

|------10p8~-----------------------17b19~----|
|----8------------8S==15~~------15-----------|
|-/9------------9-----------/16--------------|
|--------------------------------------------|
|--------------------------------------------|
|--------------------------------------------|

|17pb19r17-16-15---------17--------------------|
|----------------17-15------17b19-17b19-17b19~-|
|----------------------16----------------------|
|----------------------------------------------|
|----------------------------------------------|
|----------------------------------------------|

|--------------------------------------------------|  
|-15-17----15~------15-17b19~---17b19-17-15----15~-|  
|-------16------/16-------------------------16-----|
|--------------------------------------------------|  
|--------------------------------------------------|  
|--------------------------------------------------| 

|----------------------------------------|
|-/18-18-18-18—-18—-18--18—18-15~//------|
|-/16-16-16-16—-16--16--16—16------------|
|----------------------------------------|  
|----------------------------------------|  
|----------------------------------------|


Last Chorus 
D                        E          
|-----------------------|--------------------------------|
G                        D                              o    
|-----------------------|--------------------------------|
                                                        o   
Suggest correction
comments
print report bad tab
22 comments total. Showing first comments.
0 reply
acdcgnr1356 10 Jul 13, 2007 03:32 PM

it looks like you used power tab to tab this out....are you going to put up the power tab version?

either way....great tab

0 reply
justsixteen 61 Jul 14, 2007 05:35 AM

no, i didn't use power tab

0 reply
justsixteen 61 Jul 20, 2007 08:28 AM

no more comments or rating??

guest
You may want to rate the tab now too:
select rating
Wanna post a correction for this tab? Suggest correction