Oops, an error
Loading. Please wait.

Let It Roll Tab

version 1
version 1

Intro

Whole song

Interactive

3,055 views 1 this week
5 commentsread comments
1 2 3 4 5
x 4
add to favorites
launch autoscroll
font size
0
reset
how to read this tab
guitar tuner
Autoscroll
slow
fast
+/-
esc
set tempo
stop
Help us to improve Ultimate-Guitar.com Take our survey!
×
Author
velvet revolver- let it roll
Libertad
this is an awesome song an its my first tab woo
tabbed by curtislee16@aol.com or you could call me curt.
If anyone knows anymore of the song or knows how to play it properly let me know. cheers.

e|--------------------------------------------|
b|--------------------------------------------|
g|--------------------------------------------|    intro and chorus
d|99-88-77----------7-------------------------|
a|77-66-55-77-66-77-5-------------------------|
E|---------55-44-55---------------------------|

e|--------------------------------------------------|
b|--------------------------------------------------|
g|555555-9-7777777-11-------------------------------|     pre-chorus into the main
d|555555-9-7777777-11-99-88-77----------7-----------|     riff again
a|333333-7-5555555-9--77-66-55-77-66-77-5-----------|
E|-----------------------------55-44-55-------------|
Suggest correction
comments
print report bad tab
5 comments total. Showing first comments.
0 reply
Jtrocks1356 59 Jul 02, 2007 01:47 PM

Short tab, prechorus is off....instead of the guitar going with scotts vocals, it goes to the G power chord instead of the E power chord

0 reply
Robman2k9 30 Oct 01, 2007 10:15 PM

slash does the intro on the low e string, or so he says in Guitar World

0 reply
boredness 36 Dec 07, 2007 06:37 PM

yeah he plays evrything on the low E string here is the part if u want it:

E|-12-0-11-0-10-10-0-5-0-4-0-3/12-|

hey
and theres a change when its 10-11 seconds into the song and if u want it ill give it to u

guest
You may want to rate the tab now too:
select rating
Wanna post a correction for this tab? Suggest correction