Oops, an error
Loading. Please wait.

Let It Roll Tab

version 1
version 1

Intro

Solo

Whole song

Interactive

3,835 views 1 this week
1 commentread comment
1 2 3 4 5
worth learning
x 4
add to favorites
launch autoscroll
font size
0
reset
how to read this tab
guitar tuner
Tab Pro tools
  • play this tab
  • loop segment
  • change instrument
  • show fretboard
  • metronome
Autoscroll
slow
fast
+/-
esc
set tempo
stop
Contributor
Difficulty
novice
  Tuning: E A D G B e

  |---------------------------------------|
  |---------------------------------------|
  |-5-5-5-5-5--7fb-7~~-7-7-7-7--9fb-9~~//-|
  |---------------------------------------|
  |---------------------------------------|
  |---------------------------------------|


  |---------------------------|
  |-16---15---14---13---12----|
  |-18fb-17fb-16fb-15fb-14fb--|
  |---------------------------|
  |---------------------------|
  |---------------------------|


  |-------------------------------------------------|
  |-----5--------5--------5-8---3h5p3---------------|
  |-7fb---4--7fb---4--7fb-----7-------5-7---5-7~~---|
  |---------------------------------------7---------|
  |-------------------------------------------------|
  |-------------------------------------------------|


  |---------------------------------------------------|
  |---------7-----------------------------------------|
  |-9\7---7---9-7---7-----7---------------------------|
  |-----9---------9---7-9---9-7-9-7--5-7-5~~\\--------|
  |---------------------------------------------------|
  |---------------------------------------------------|


  |------------------------------------------------------|
  |------------------------------------------------------|
  |------------------------------------------------------|
  |-7fb~~~--9p7------/7--7p5-----5-------5p2-----3-------|
  |-------------10p7---------7-----7-5-------5-2---5-3---|
  |----------------------------7-------7---------------5-|


  |-----------------------------------------------10-7-10-----------17b~~~-|
  |------------------------------------10----10fb---------/17-15-17--------|
  |---------------------7---7/9-7-9/12----12-------------------------------|
  |-2/5--5---5-2p0---/9---9------------------------------------------------|
  |--------7---------------------------------------------------------------|
  |------------------------------------------------------------------------|
comments
print report bad tab
1 comment total.
+1 reply
chicken92 wrote on September 23 2007, 01:32 am

its wrong

I want to post or [tab]
guest
You may want to rate the tab now too:
select rating
Please do not post tabs as comments. Select "correction" instead!