Oops, an error
Loading. Please wait.

Let It Roll Tab

version 1
version 1

Whole song

Interactive

5,297 views 6 this week
15 commentsread comments
1 2 3 4 5
x 17
add to favorites
launch autoscroll
font size
0
reset
how to read this tab
guitar tuner
Autoscroll
slow
fast
+/-
esc
set tempo
stop
Help us to improve Ultimate-Guitar.com Take our survey!
×
Author
Difficulty
intermediate
#----------------------------------PLEASE NOTE---------------------------------#
#This file is the author's own work and represents their interpretation of the #
#song. You may only use this file for private study, scholarship, or research. #
#------------------------------------------------------------------------------#


Transcribed by Jtrocks1356

This is my first tab but i think its pretty accurate.
        Please note that the solo is not transcribed yet. I am working on that.  
For the order of the song scroll down to the order section.  
For the rhythm of the verse listen to the song.

This is NOT how Slash plays it. This is how Dave plays it



Gtr I (E A D G B E) - 'Untitled'
Gtr II (E A D G B E) - 'Untitled'

Standard Tuning

 Intro                  Intro pt.2
 4/4
  Gtr I
|------------------||-||------------------|
|-----------------o||-||o-----------------|
|------------------||-||------------------|
|------------------||-||------------------|
|-7-6-5-5-------5-o||-||o-7-6-5-5-------5-|
|---------5-4-3----||-||----------5-4-3---|
|
|                         Gtr II
|------------------||-||------------------|
|-----------------o||-||o-----------------|
|------------------||-||--9-8-7-7-------7-|
|------------------||-||--9-8-7-7-7-6-5-7-|
|-----------------o||-||o-7-6-5-5-7-6-5-5-|
|------------------||-||----------5-4-3---|


                     Verse (listen to song for rhythm)
|------------------||-----------------|-------------|
|-----------------o||-----------------|-------------|
|------------------||-----------------|-------------|
|------------------||-2---------------|-------------|
|-7-6-5-5-------5-o||-2---------------|-------------|
|---------5-4-3----||-0---------------|-------------|
|
|------------------||-----------------|-------------|
|-----------------o||-----------------|-----------3-|
|-9-8-7-7-------7--||-----------------|-----------2-|
|-9-8-7-7-7-6-5-7--||-2-2-2-2-2-2-2-2-|-2-2-2-2---0-|
|-7-6-5-5-7-6-5-5-o||-2-2-2-2-2-2-2-2-|-2-2-2-2-0---|
|---------5-4-3----||-0-0-0-0-0-0-0-0-|-0-0-0-0-----|


     Pre-Chorus I
|--||-------------------------------|
|-o||-------------------------------|
|--||-5-5-5-5-5---7-7-7-7-7-7---9-9-|
|--||-5-5-5-5-5-5-7-7-7-7-7-7-7-9-9-|
|-o||-3-3-3-3-3-5-5-5-5-5-5-5-7-7-7-|
|--||-----------3-------------5-----|


   Chorus I
                                       4x
||------------------|------------------||----|
||o-----------------|-----------------o||----|
||--9-8-7-7-------7-|-9-8-7-7-------7--||----|
||--9-8-7-7-7-6-5-7-|-9-8-7-7-7-6-5-7--||----|
||o-7-6-5-5-7-6-5-5-|-7-6-5-5-7-6-5-5-o||----|
||----------5-4-3---|---------5-4-3----||----|


 Verse II               Verse II pt.2 
|---------|-----------||--------------------------------||--|
|---------|--------3--||o---------------------------3--o||--|
|---------|--------2--||----------------------------2---||--|
|---------|--------0--||--2-2-2-2-2-2-2-2-2-2-2-2---0---||--|
|---------|------0----||o-2-2-2-2-2-2-2-2-2-2-2-2-0----o||--|
|---------|-----------||--0-0-0-0-0-0-0-0-0-0-0-0-------||--|


   Pre-Chorus II
||------------------------------|-----------------|------------------||-|
||o-----------------------------|-----------------|-----------------o||-|
||--5-5-5-5-5-5---7-7-7-7-7-7---|-9-8-7-7-------7-|-9-8-7-7-------7--||-|
||--5-5-5-5-5-5-5-7-7-7-7-7-7-7-|-9-8-7-7-7-6-5-7-|-9-8-7-7-7-6-5-7--||-|
||o-3-3-3-3-3-3-5-5-5-5-5-5-5-7-|-7-6-5-5-7-6-5-5-|-7-6-5-5-7-6-5-5-o||-|
||--------------3-------------5-|---------5-4-3---|---------5-4-3----||-|


 Chorus II                           Pre-Solo
|-----------------|-----------------|---------------------------------|
|-----------------|-----------------|---------------------------------|
|-9-8-7-7-------7-|-9-8-7-7-------7-|-3-3-3-3-3-3---5-5-5-5-5-5---7-7-|
|-9-8-7-7-7-6-5-7-|-9-8-7-7-7-6-5-7-|-3-3-3-3-3-3-3-5-5-5-5-5-5-5-7-7-|
|-7-6-5-5-7-6-5-5-|-7-6-5-5-7-6-5-5-|-1-1-1-1-1-1-3-3-3-3-3-3-3-5-5-5-|
|---------5-4-3---|---------5-4-3---|-------------1-------------3-----|


|----------------------------|
|----------------------------|
|--7--7-6-6-5-5-4-4-3-2------|
|--7--7-6-6-5-5-4-4-3-2-2----|
|--5--5-4-4-3-3-2-2-1-0-2----|
|-----------------------0----|
|
|-10-10-9-9-8-8-7-7-6-5-0----|
|----------------------------|
|----------------------------|
|----------------------------|
|----------------------------|
|----------------------------|

Order
Intro x4
Intro pt.2 x4
Verse x4
Pre-Chorus I x1
Chorus x2
Verse II x 1
Verse II pt. 2 x2
Pre-Chorus II x2
Chorus II x1
Pre-Solo x1
Verse x4 (play over the solo)
Pre-Chorus I x1
Chorus x8 

Tablature Legend
----------------
 h   - hammer-on
 p   - pull-off
 b   - bend
 pb  - pre-bend
 r   - bend release (if no number after the r, then release immediately)
 /\  - slide into or out of (from/to "nowhere")
 s   - legato slide
 S   - shift slide
 - natural harmonic
[n]  - artificial harmonic
n(n) - tapped harmonic
 ~   - vibrato
 tr  - trill
 T   - tap
 TP  - trem. picking
 PM  - palm muting
\n/  - tremolo bar dip; n = amount to dip
 \n  - tremolo bar down
 n/  - tremolo bar up
/n\  - tremolo bar inverted dip
 =   - hold bend; also acts as connecting device for hammers/pulls
 <> - volume swell (louder/softer)
 x   - on rhythm slash represents muted slash
 o   - on rhythm slash represents single note slash
Suggest correction
comments
print report bad tab
15 comments total. Showing first comments.
0 reply
yakreig 71 Jul 03, 2007 05:29 AM

the only thing is that i thinks its easier played in drop d but apart from that man ace tab :)

0 reply
Chris89 20 Jul 03, 2007 05:55 AM

Slash doesn't play in drop d, but he does play the main riff from the 12th fret on the low E string, not from the 7th fret on the A string.

0 reply
justsixteen 61 Jul 12, 2007 07:18 AM

i think that slash plays some octaves in the pre-solo section....and i agree with Chris89...he does all the main riff on the low E string.

guest
You may want to rate the tab now too:
select rating
Wanna post a correction for this tab? Suggest correction