Oops, an error
Loading. Please wait.

Loving The Alien Tab

version 2
version 2

Whole song

Interactive

4,541 views 18 this week
1 commentread comment
1 2 3 4 5
accurate
x 6
add to favorites
launch autoscroll
font size
0
reset
how to read this tab
guitar tuner
Autoscroll
slow
fast
+/-
esc
set tempo
stop
Help us to improve Ultimate-Guitar.com Take our survey!
×
Author
Andrew Zara 3,575
Band- Velvet Revolver
Song- Loving The Alien

Gtr I (Standard) - Slash
gtr 2 (Standard ) - Dave Kushner



::Verse 1::

C
Sometimes I think I\'m scared
Am
Sometimes I know
Em
I feel like making love
G
Sometimes I don\'t

C
I feel like letting go
Am 
Maybe not
Em
I feel like giving up
G
Is all we got


::Chorus:: (Riff A played with Chorus)

Riff A

-------------------------------------------------|
|-21----18----21----18----21----18----17-18-20----|
|----17----17----17----17----17----17-------------|
|-------------------------------------------------|
|-------------------------------------------------|
|-------------------------------------------------|


F
Sometimes is all the time
G
And never means maybe
F                          G
Sometimes is all the time
Maybe 
F
And I\'m moving on
G
And I\'m moving on (Sometimes I feel alone)
C
And I\'m moving on
Em
And I\'m moving on

::Verse 2::

C
Sometimes I make believe 
Am
When we\'re alone
G
Machines have taken hold
Em
Can you get me to a telephone
C
It\'s just the little things
Am
You used to see 
G
Am I still that man who makes you who you want to be

::Chorus:: (play Riff A again)

F
Sometimes is all the time
G
And never means maybe
F                          G
Sometimes is all the time
Maybe 
F
And I\'m moving on
G
And I\'m moving on (Sometimes I feel alone)
C
And I\'m moving on
Em
And I\'m moving on


:: Bridge - these are the chords fr this part, work it out yourselves - D, C, Em, D 
    and before solo starts D, C, Em, D ::

I never noticed
How lovely were the aliens
Lovely were the aliens
I never noticed
Lovely were the aliens
Lovely were the aliens

::SOLO:: - Played by Slash.

 4/4
  Gtr I
   
|-----------------------------------------------------------------------------------------------------|
|-------15--17-17b19-17b19-17b19--17-15--15h17--17b19-17b19--15-17-15S13--13-13s10-10S8-8-10b12r=10---|
|-14-16-----------------------------------------------------------------------------------------------|
|-----------------------------------------------------------------------------------------------------|
|-----------------------------------------------------------------------------------------------------|
|-----------------------------------------------------------------------------------------------------|


   
|-----------------------------------------------------------|
|-10-10b12r=10--10-8-7-8-7---7---7--------------------------|
|--------------------------9---9---9-7-9-7-9-5-7-5----------|
|--------------------------------------------------7-5-7----|
|-----------------------------------------------------------|
|-----------------------------------------------------------|


 
|-------9------------9b11----------------------|
|-9b11r====9pb11r=9--9b11---7h8----------------|
|--------------------------------9--7h9--------|
|--------------------------------9------7S9----|
|----------------------------------------------|
|----------------------------------------------|


  
|--------------7-8-10--12-13-15--14-15-17--15-17-19--19b21--18-19----|
|-------7-8-10-------------------------------------------------------|
|---7-9--------------------------------------------------------------|
|-9------------------------------------------------------------------|
|--------------------------------------------------------------------|
|--------------------------------------------------------------------|


   
::Play Chorus over and over and end with RIff A::
Suggest correction new What's this?
You can suggest a correction to this tab. Community and Mods will review your correction and vote to approve or reject it.
comments
print report bad tab
1 comment total.
0 reply
zaccy 537 wrote on March 20 2005, 12:00 am

the other one kinda sucks.. i rated it before i tested it on my fret board. good tab.

guest
You may want to rate the tab now too:
select rating
Please do not post tabs as comments. Select "correction" instead!