Oops, an error
Loading. Please wait.

Messages Tab

version 1
version 1

Intro

Whole song

Interactive

5,920 views 1 this week
6 commentsread comments
1 2 3 4 5
accurate
x 5
add to favorites
launch autoscroll
font size
0
reset
how to read this tab
guitar tuner
Autoscroll
slow
fast
+/-
esc
set tempo
stop
Help us to improve Ultimate-Guitar.com Take our survey!
×
Author
This song is really nice, but I couldn't found any tabs of this song..So I tried tabs 
intro of it. Anyone pls tabs the rest of the song?
Btw this is my first tabs, I'm not sure if it's accurate.. :3 Please do correct me if 
found anywhere wrong.

INTRO
e|-----------------------------------------------------|
B|--1/3~--- 1--3---------------------------------------|
G|---------------5/3-3-3------1/2~------4-----6--------|
D|-------------------------3--------5/6---6------5~----|
A|-----------------------------------------------------|
E|-----------------------------------------------------|

e|----------------------------------------------------------------------------|
B|-----0---3~--5/6--5---3/5---3/1-------1h2p1----3--3/4~----4/5-5~---6/7-7~---|
G|-0/1---0--------------------------1h2------------4------4-------------------|
D|----------------------------------------------------------------------------|
A|----------------------------------------------------------------------------|
E|----------------------------------------------------------------------------|

e|-----6/7/6---4h6----------6/7/6---4h6-4-------------------------------------------------------|
B|---5-------------5~-----5--------------6~------4--5-5/7--55---5-----7-8--8/10/8-----4----4/5~-|
G|---------------------------------------------5--------------6------8------------------5-------|
D|----------------------------------------------------------------------------------------------|
A|----------------------------------------------------------------------------------------------|
E|----------------------------------------------------------------------------------------------|
Suggest correction
comments
print report bad tab
6 comments total. Showing first comments.
0 reply
Spiritweaver 10 wrote on September 17 2007, 10:22 am

What album is this from?

0 reply
justsixteen 61 wrote on September 17 2007, 11:10 am

it is a track that was cut off from Libertad...but they have released it and so you can easyli find it on youtube

0 reply
mexicanslash 10 wrote on September 21 2007, 06:31 pm

not very accurate

guest
You may want to rate the tab now too:
select rating
Wanna post a correction for this tab? Suggest correction