Oops, an error
Loading. Please wait.

Messages Tab

version 2
version 2

Intro

Whole song

Interactive

7,225 views 1 this week
6 commentsread comments
1 2 3 4 5
accurate
x 13
add to favorites
launch autoscroll
font size
0
reset
how to read this tab
guitar tuner
Autoscroll
slow
fast
+/-
esc
set tempo
stop
Help us to improve Ultimate-Guitar.com Take our survey!
×
Difficulty
novice
e[---------------------------------------------------------------------|
b[----------------------------------------------6p5-3h5-3--------------|
g[-/7-5-7-5s3-3-3---1s2-----5--7---------5---7------------5------------|
d[----------------3-----5s7--7---7~--5h7---7---------------------------|
a[---------------------------------------------------------------------|
e[---------------------------------------------------------------------|

e[---------------------------------------------------------------------|
b[---------------------------------5-5-8-8-----------------------------|
g[-------5h7p5----7pb(9)p5-7b(9)--5------------------------------------|
d[--5-7----------------------------------------------------------------|
a[---------------------------------------------------------------------|
e[---------------------------------------------------------------------|

e[------7b(8)-7-5-7---------7b(8)-7-5-7--------------------------------|
b[---5--------------5~---5-------------6~---5-6p5-6b(8)-6-5---6--------|
g[----------------------------------------------------------7----------|
d[---------------------------------------------------------------------|
a[---------------------------------------------------------------------|
e[---------------------------------------------------------------------|


e[--------5-5b(7)5-----------------------------------------------------|
b[---5-6------------5-3-5----------------------------------------------|
g[---------------------------------------------------------------------|
d[---------------------------------------------------------------------|
a[---------------------------------------------------------------------|
e[---------------------------------------------------------------------|


My first tab, i think it's pretty accurate, but im not good at figuring out chords. Now 
need someone to tab the rest of the song plz =)
comments
print report bad tab
6 comments total. Showing first comments.
+1 reply
Lithium717 101 wrote on January 2 2008, 02:19 pm

That's actually very good. Might be a couple errors, but it's good for a first tab

5*

0 reply
unoriginalmind 24 wrote on January 3 2008, 04:48 pm

Most excellent. Though I can't hear the 5s7 in the first section very well, but this is still the best I've seen.

0 reply
allfooie 470 wrote on February 12 2008, 02:27 am

you hav done a great job man. just one correction: if im not mistaken, in the first line, look at the 2nd slide (5s7). after that u hav written 5 7 7 7. i think it goes 5 7 7 5 on the same strings as u have at the moment. other than than that pretty damn good.

I want to post or [tab]
guest
You may want to rate the tab now too:
select rating
Please do not post tabs as comments. Select "correction" instead!