Oops, an error
Loading. Please wait.

Messages Tab

version 1
version 1

Whole song

Interactive

15,032 views 24 this week
2 commentsread comments
1 2 3 4 5
accurate
x 5
add to favorites
launch autoscroll
font size
0
reset
how to read this tab
guitar tuner
Autoscroll
slow
fast
+/-
esc
set tempo
stop
Help us to improve Ultimate-Guitar.com Take our survey!
×
Author
Difficulty
intermediate
----------------------------------------------------------------------------
                         Messages - Velvet Revolver
----------------------------------------------------------------------------
Tabbed by: extendafist
Email: ruddick.brandon@yahoo.com

Tuning: Standard

Intro:

e|-------------------------------------------------------------------------|
B|--------------------------------------2----------------------------------|
G|-7------5h7-5/3-3-3-------2-----2-5-2----0---0h2h5p2-5/7---10-\9-7h9-7\55|
D|------------------------3------------------------------------------------|
A|-------------------------------------------------------------------------|
E|-------------------------------------------------------------------------|

e|----------------------------------------|
B|----------------------------------------|
G|-0h2h5/7\5-5---9p7p5h9----5--9-9---12-12|
D|----------------------------------------|
A|----------------------------------------|
E|----------------------------------------|

Figure 1:

e|-0-7br-3h5p0---0-7br-3h5p1---------------------------------------|
B|-----------------------------3h5/6/8-3h6p5h6--3h5h6--10br---5p3h5|
G|-----------------------------------------------------------------|
D|-----------------------------------------------------------------|
A|-----------------------------------------------------------------|
E|-----------------------------------------------------------------|

Figure 2:

e|-----------------------------1-0-------33--0-*--------|
B|--------------------------3------3-----00--1-*----1---|
G|-0h2p0-0h2------0h2p0------2-------0---------*---0---2|
D|----------------------3p0--------------------*-------2|
A|---------------------------------------------*-2-----0|
E|---------------------------------------------*--------|

Figure 3:

e|---------|
B|---------|
G|-0--0h2p0|
D|---------|
A|---------|
E|---------|



e|----------|
B|----------|
G|----------|
D|----------|
A|-0h3h5h7p5|
E|----------|



e|----------|
B|----------|
G|-0h2h5/7\5|
D|----------|
A|----------|
E|----------|



e|----------|
B|----------|
G|----------|
D|-0h3h5/7\5|
A|----------|
E|----------|

Solo:

e|-0-7br--3/5--0-7br--5/8-8p7p5/3/10--10p8p7h10---8-7-8br--7h8p7h8---------|
B|-------------------------------------------------------------------------|
G|-------------------------------------------------------------------------|
D|-------------------------------------------------------------------------|
A|-------------------------------------------------------------------------|
E|-------------------------------------------------------------------------|


e|-12br-10p8p5--13/12--10p8p5--7br--3h5p0----------------|
B|-----------------------------------------3h5-3\1--0h1-1|
G|-------------------------------------------------------|
D|-------------------------------------------------------|
A|-------------------------------------------------------|
E|-------------------------------------------------------|


| /  slide up
| \  slide down
| h  hammer-on
| p  pull-off
| ~  vibrato
| +  harmonic
| x  Mute note
| b  Bend note
| br Bend note then return to original note
============================================================================
You can only use this tab for your own private uses. The contents of this tab are the author's
own work and may not be recreated or distributed.

Figure 3 is only fills for the chorus. Listen to the song to find 
when all the parts come in.

Email me any corrections at ruddick.brandon@yahoo.com

Enjoy the tab!









Suggest correction
What's this?
You can suggest a correction to this tab. Community and Mods will review your correction and vote to approve or reject it.
comments
print report bad tab
2 comments total.
0 reply
ElStHf 21 wrote on September 24 2009, 04:00 pm

gOOD TAB!

0 reply
musician85341 31 wrote on June 18 2010, 03:48 pm

Good job. To me it's the only good tab for this song out there. Great.

guest
You may want to rate the tab now too:
select rating
Please do not post tabs as comments. Select "correction" instead!