Oops, an error
Loading. Please wait.

Messages Tab

version 3
version 3

Whole song

Interactive

6,838 views 12 this week
no commentswrite comment
1 2 3 4 5
excellent!
x 6
add to favorites
launch autoscroll
font size
0
reset
how to read this tab
guitar tuner
Autoscroll
slow
fast
+/-
esc
set tempo
stop
Help us to improve Ultimate-Guitar.com Take our survey!
×
-------------------------------------------------------------------------------
                             Messages - Velvet Revolver
-------------------------------------------------------------------------------
Tabbed by: Connor Smith
Email: chelsea977@hotmail.com

Tuning: Standard

Wah Wah Pedal is used throuhout, listen to the tune then use when necessary.

Intro

e|---------------------------------------------------------------------------------------------|
B|---------------------------------------------5br5-3-5-3----------------------------------8-8-|
G|-/7--5h7p5\3-3----------5---6----------5---7------------5~----5--7-5--7br5-7b~~-7br5-7b-7b---|
D|-----------------3/7--7---7----5---5-7---7----------------5-7--------------------------------|
A|---------------------------------------------------------------------------------------------|
E|---------------------------------------------------------------------------------------------|

Riff

e|------------------------------------------|----------------------------------------------|
B|-----12br9--10----------12br--9-10--------|-----------------------------10-10br----------|
G|--9-------------9~~--9--------------10~~--|----7-9-10-10br-9-7-10--7-10---------9-7-9----|
D|------------------------------------------|----------------------------------------------|
A|------------------------------------------|----------------------------------------------|
E|------------------------------------------|----------------------------------------------|

Solo

e|-----------------------------------------------------------------------------------------------|
B|---12br12-10-10~~----12br12-10-12-12b~r--10---15~-13-12-13-15-15-15p13-12-13-12h1312h1312h13---|
G|-9---------------12-9-----------------------9--------------------------------------------------|
D|-----------------------------------------------------------------------------------------------|
A|-----------------------------------------------------------------------------------------------|
E|-----------------------------------------------------------------------------------------------|

e|----------12br-10-12----------13p12-10-----------9/10---------------------------------|
B|-------10------------10--10-10---------13-10-10-------13-12-10/12---------------------|
G|------------------------------------------------------------------9--7h9-7------------|
D|---------------------------------------------------------------------------10-9h10----|
A|-----------------------------------------------------------------------------------10-|
E|--------------------------------------------------------------------------------------|

Outro
                                             |Trill|
e|-----------------------------------------13-12t13--------------------------------------|
B|-12h13-15-13-12h13-15--10h12-13-12-10h12----------15-13-12h13----15br15-13-12h13-12h13-|
G|--------------------------------------------------------------12-----------------------|
D|---------------------------------------------------------------------------------------|
A|---------------------------------------------------------------------------------------|
E|---------------------------------------------------------------------------------------|

                                             |Trill|
e|-----------------------------------------13-12t13-------------------------------------------|
B|-12h13-15-13-12h13-15--10h12-13-12-10h12-----------15--13--12h13----------------------------|
G|-------------------------------------------------------------------12-----------------------|
D|--------------------------------------------------------------------------------------------|
A|--------------------------------------------------------------------------------------------|
E|--------------------------------------------------------------------------------------------|
Suggest correction
comments
print report bad tab
guest
You may want to rate the tab now too:
select rating
Please do not post tabs as comments. Select "correction" instead!