Oops, an error
Loading. Please wait.

Money Bass Tab

688 views 1 this week
no commentswrite comment
1 2 3 4 5
accurate
x 4
add to favorites
launch autoscroll
font size
0
reset
guitar tuner
Autoscroll
slow
fast
+/-
esc
set tempo
stop
Help us to improve Ultimate-Guitar.com Take our survey!
×
Author
tabbed by doug
standard tuning

 (0:18)
|-----4----------------|-----4----------------|-----4----------------|
|-------4--------------|-------4--------------|-------4--------------|
|-2-2-----2---0-2--5-2-|-2-------2---0-2--5-2-|-2-------2---0-2--5-2-|
|-----------2----------|-----------2----------|-----------2----------|

|-----4----------------|-----4----------------|-----4----------------|
|-------4--------------|-------4--------------|-------4--------------|
|-2-------2---0-2--5-2-|-2-------2---0-2--5-2-|-2-------2---0-2--5-2-|
|-----------2----------|-----------2----------|-----------2----------|

|-----4----------------|-----4----------------|-----4----------------|
|-------4--------------|-------4--------------|-------4--------------|
|-2-------2---0-2--5-2-|-2-------2---0-2--5-2-|-2-------2---0-2--5-2-|
|-----------2----------|-----------2----------|-----------2----------|

Verse
|-----4----------------|-----4----------------|-----4----------------|
|-------4--------------|-------4--------------|-------4--------------|
|-2-------2---0-2--5-2-|-2-------2---0-2--5-2-|-2-------2---0-2--5-2-|
|-----------2----------|-----------2----------|-----------2----------|

|-----4----------------|-----4----------------|-----4----------------|
|-------4--------------|-------4--------------|-------4--------------|
|-2-------2---0-2--5-2-|-2-------2---0-2--5-2-|-2-------2---0-2--5-2-|
|-----------2----------|-----------2----------|-----------2----------|

|----------------------------------|
|-4-4-4---------4-3-2-----------0--|
|------4---0-4-------2-----0-2-----|
|--------2-------------0-3---------|


Guitar Solo 1
|-----4----------------|-----4----------------|-----4----------------|
|-------4--------------|-------4--------------|-------4--------------|
|-2-------2---0-2--5-2-|-2-------2---0-2--5-2-|-2-------2---0-2--5-2-|
|-----------2----------|-----------2----------|-----------2----------|

|-----4----------------|-----4----------------|-----4----------------|
|-------4--------------|-------4--------------|-------4--------------|
|-2-------2---0-2--5-2-|-2-------2---0-2--5-2-|-2-------2---0-2--5-2-|
|-----------2----------|-----------2----------|-----------2----------|

|-----4----------------|-----4----------------|
|-------4--------------|-------4--------------|
|-2-------2---0-2--5-2-|-2-------2---0-2--5-2-|
|-----------2----------|-----------2----------|

|----9--------------------|----9--------------------|
|------9------------------|------9------------------|
|-7------7---------7--10--|-7------7---------7--10--|
|-----------7--10---------|-----------7--10---------|

|----9--------------------|----9----------------------|
|------9------------------|------9--------------------|
|-7------7---------7--10--|-7------7---------7--10----|
|-----------7--10---------|-----------7--10-----------|

|-----4----------------|-----4----------------|-----4----------------|
|-------4--------------|-------4--------------|-------4--------------|
|--2------2---0-2--5-2-|-2-------2---0-2--5-2-|-2-------2---0-2--5-2-|
|-----------2----------|-----------2----------|-----------2----------|

|-----4----------------|-----4----------------|-----4----------------|
|-------4--------------|-------4--------------|-------4--------------|
|-2-------2---0-2--5-2-|-2-------2---0-2--5-2-|-2-------2---0-2--5-2-|
|-----------2----------|-----------2----------|-----------2----------|

|-------------------------|-------------------------|
|-------------------------|-------------------------|
|-2-2-2-2-2-2-2-2-2-2-2-2-|-2-2-2-2-2-2-2-2-2-2-2-2-|
|-------------------------|-------------------------|

Guitar Solo 2
||---------------|---------------|---------------|----------------|
||o----0---------|-----0---------|-----0---------|-----0----------|
||o-2-----4--3-0h|=2-2----4--3-0h|=2-2----4--3-0h|=2-2----4--3-0h=|
||---------------|---------------|---------------|----------------|

|---------------|---------------|---------------|---------------|
|-----0---------|-----0---------|-----0---------|-----0---------|
|-2-2----4--3-0h|=2-2----4--3-0h|=2-2----4--3-0h|=2-2----4--3---|
|---------------|---------------|---------------|---------------|

|-------------|-------------|-------------|--------------|
|-2--1--0-----|-2--1--0-----|-2--1--0-----|-2--1--0------|
|----------4--|----------4--|----------4--|----------4---|
|-------------|-------------|-------------|--------------|

|--------------|---------------|---------------|---------------|
|----0---------|-----0---------|-----0---------|-----0---------|
|-2-----4--3-0h|=2-2----4--3-0h|=2-2----4--3-0h|=2-2----4--3---|
|--------------|---------------|---------------|---------------|

|-------------|--------------|-4--2--0-----|--------------|
|----4--3--2--|-----4--3--2--|----------4--|-2--0---------|
|-------------|--------------|-------------|-------4--3---|
|-2-----------|-2-2----------|-------------|--------------|

Verse
|-----4----------------|-----4----------------|-----4----------------|
|-------4--------------|-------4--------------|-------4--------------|
|-2-------2---0-2--5-2-|-2-------2---0-2--5-2-|-2-------2---0-2--5-2-|
|-----------2----------|-----------2----------|-----------2----------|

|-----4----------------|-----4----------------|-----4----------------|
|-------4--------------|-------4--------------|-------4--------------|
|-2-------2---0-2--5-2-|-2-------2---0-2--5-2-|-2-------2---0-2--5-2-|
|-----------2----------|-----------2----------|-----------2----------|

|----------------------------------|
|-4-4-4---------4-3-2-----------0--|
|------4---0-4-------2-----0-2-----|
|--------2-------------0-3---------|

Repeat until the end
|-------------|-------------|-------------|--------------|
|----0-----0--|----0-----0--|----0-----0--|----0-----0---|
|-2-----2-----|-2-----2-----|-2-----2-----|-2-----2------|
|-------------|-------------|-------------|--------------|

|-------------|-------------|-------------|--------------|
|----0-----0--|----0-----0--|----0-----0--|----0-----0---|
|-2-----2-----|-2-----2-----|-2-----2-----|-2-----2------|
|-------------|-------------|-------------|--------------|
Suggest correction
What's this?
You can suggest a correction to this tab. Community and Mods will review your correction and vote to approve or reject it.
comments
print report bad tab
guest
You may want to rate the tab now too:
select rating
Please do not post tabs as comments. Select "correction" instead!