Oops, an error
Loading. Please wait.

Money Tab

version 1
version 1

Intro

Whole song

2,555 views 1 this week
5 commentsread comments
1 2 3 4 5
x 7
add to favorites
launch autoscroll
font size
0
reset
how to read this tab
guitar tuner
Autoscroll
slow
fast
+/-
esc
set tempo
stop
Help us to improve Ultimate-Guitar.com Take our survey!
×
Song: Money
Artist: Velvet Revolver (Pink Floyd)
Tabbed by: Matt Reed
Email: matttheman7@hotmail.com

Tuning:EADGBE

This is a pretty easy song once you get a hang of it. The timing in this song is
amazing!I think it is in 7/4 time. I've not seen the movie but I've heard this
version before and Velvet Revolver do a good job of it. I only have the verses
so if anyone has the rest, if they could e-mail me, I'd appreciate it.

e|--------------------------------------------------------------------------|
B|--------------------------------------------------------------------------|
G|---4----------------------------------------------------------------------|
D|-----4--------0-----------------------------------------------------------|
A|-2-----2--0-2---2---------------------------------------------------------|
E|---------2----------------------------------------------------------------|

repeat many times until the first verse

repeat 4 times in the verse except end on the last 0 and go to this riff:

e|--------------------------------------------------------------------------|
B|--------------------------------------------------------------------------|
G|--------------------------------------------------------------------------|
D|-4-4-4-------4-3-2-----------0--------------------------------------------|
A|-------4---0-------2-----0-2---2------------------------------------------|
E|---------2-----------0-3--------------------------------------------------|

That's pretty much all the verses and a bit of the solo. 
Enjoy.
=============================================================================
Suggest correction
comments
print report bad tab
5 comments total. Showing first comments.
0 reply
drlazmeister 96 Oct 03, 2004 12:00 AM

I think on the 2nd bit it's more like:

e|--------------------------------------------------------------------------|
B|--------------------------------------------------------------------------|
G|--------------------------------------------------------------------------|
D|-4-4-4--------4-3-2-----------0-------------------------------------------|
A|----------0-2-------2-----0-2---2-----------------------------------------|
E|---------2-----------0-3--------------------------------------------------|

0 reply
gpderek09 150 Nov 24, 2004 12:00 AM

did this come out on contraband?

0 reply
darkmarine 10 Dec 19, 2004 12:00 AM

no its on the slither EP, u can get it on itunes, well worth $1

guest
You may want to rate the tab now too:
select rating
Wanna post a correction for this tab? Suggest correction