Oops, an error
Loading. Please wait.

Set Me Free Tab

version 5
version 5

Whole song

Interactive

1,066 views 1 this week
no commentswrite comment
1 2 3 4 5
x 3
add to favorites
launch autoscroll
font size
0
reset
how to read this tab
guitar tuner
Autoscroll
slow
fast
+/-
esc
set tempo
stop
Help us to improve Ultimate-Guitar.com Take our survey!
×
Set Me Free
Velvet Revolver
Contraband
Lead Guitar


|-x--x-x-x-x----------------------------------------------|
|-x--x-x-x-x-4p3-1-1-2------4-3--7-4--1--1-2--------------|
|-x--x-x-x-x------------1-2------------------1-2----------|
|-x--x-x-x-x----------------------------------------------|
|-x--x-x-x-x----------------------------------------------|
|-x--x-x-x-x----------------------------------------------|

|---------------------------------------------------------|
|-4-3--7-4--1--1-2------4-3--7-4--1--1-2------------------|
|------------------1-2-------------------1-2--------------|
|---------------------------------------------------------|
|---------------------------------------------------------|
|---------------------------------------------------------|

|---------------------------------------------------------|
|-4-3--7-4--1--1-2------4-3--7-4--1--1-2------------------|
|------------------1-2-------------------1-2--------------|
|---------------------------------------------------------|
|---------------------------------------------------------|
|---------------------------------------------------------|

|-4-3--7-4--1--1-2----------------------------------------|
|---------------------------------------------------------|
|--------------------2------------------------------------|
|--------------------2------------------------------------|
|--------------------0-0--3-3--4-4----------0-0-----------|
|----------------------------------3-3-4-4----------------|

|---------------------------------------------------------|
|---------------------------------------------------------|
|-------2-------------------------------2-----------------|
|-1p0---2-------------------------1p0---2-----------------|
|-----3-0-0--3-3--4-4---------0-0-----3-0-----------------|
|---------------------3-3-4-4-----------------------------|

|---------------------------------------------------------|
|---------------------------------------------------------|
|-2--------------------------------2----------------------|
|-2--------------------------1p0---2----------------------|
|-0-0--3-3--4-4----------0-0-----3-0-0--3-3-4-4--------0-0|
|---------------3-3-4-4------------------------3-3-4-4----|
|------------------------------------|         There isn't 
|------------------------------------|         any guitar
|-------2----------------------------|         during the
|-1p0---2----------------------------|         verse, so
|-----3-0----------------------------|         don't play
|------------------------------------|         anything!

You operate and motivate on synthetic
Fuel, You're Mother Nature and an atom
Bomb, As long as you're kept full of
Pretty bodies, Your little secret will
Be safe with me

|---------------------------------------------------------|
|-4-3--7-4--1--1-2------4-3--7-4--1--1-2------------------|
|------------------1-2-------------------1-2--------------|
|---------------------------------------------------------|
|---------------------------------------------------------|
|---------------------------------------------------------|

|---------------------------------------------------------|
|-4-3--7-4--1--1-2------4-3--7-4--1--1-2------------------|
|------------------1-2-------------------1-2--------------|
|---------------------------------------------------------|
|---------------------------------------------------------|
|---------------------------------------------------------|
   Around again, Insane again, it comes again and...me free
|---------------------------------------------------------|
|---------------------------------------------------------|
|-7----3----5---------7----3---------5--------------------|
|-7----3----5----5----7----3----5----5--------------------|
|-5----1----3----5----5----1----5----3--------------------|
|----------------3--------------3-------------------------|
So set me free, set me free 'cause I think you need my soul
|---------------------------------------------------------|
|---------------------------------------------------------|
|-7----3----5---------7----3----10-10-10------------------|
|-7----3----5----5----7----3----10-10-10------------------|
|-5----1----3----5----5----1----8--8--8-------------------|
|----------------3----------------------------------------|
So set me free, set me fre_____________________ee
|---------------------------------------------------------|
|-4-3--7-4--1--1-2------4-3--7-4--1--1-2------------------|
|------------------1-2-------------------1-2--------------|
|---------------------------------------------------------|
|---------------------------------------------------------|
|---------------------------------------------------------|
Yet again, no guitar during the verses so still don't play.

You're kept alive and polarized with one thing in mind, Metabolizing everything that
you se.  but now and then or a little later, Now I'm gonna take you down with me
|---------------------------------------------------------|
|-4-3--7-4--1--1-2------4-3--7-4--1--1-2------------------|
|------------------1-2-------------------1-2--------------|
|---------------------------------------------------------|
|---------------------------------------------------------|
|---------------------------------------------------------|

|---------------------------------------------------------|
|-4-3--7-4--1--1-2------4-3--7-4--1--1-2------------------|
|------------------1-2-------------------1-2--------------|
|---------------------------------------------------------|
|---------------------------------------------------------|
|---------------------------------------------------------|
Around again, Insane again, she comes again and...me free
|---------------------------------------------------------|
|---------------------------------------------------------|
|-7----3----5---------7----3---------5--------------------|
|-7----3----5----5----7----3----5----5--------------------|
|-5----1----3----5----5----1----5----3--------------------|
|----------------3--------------3-------------------------|
So set me free, set me free 'cause I think you need my soul
|---------------------------------------------------------|
|---------------------------------------------------------|
|-7----3----5---------7----3----10-10-10------------------|
|-7----3----5----5----7----3----10-10-10------------------|
|-5----1----3----5----5----1----8--8--8-------------------|
|----------------3----------------------------------------|
So set me free, set me fre_____________________ee
|---------------------------------------------------------|
|---------------------------------------------------------|
|-7----3----5---------7----3---------5--------------------|
|-7----3----5----5----7----3----5----5--------------------|
|-5----1----3----5----5----1----5----3--------------------|
|----------------3--------------3-------------------------|
So set me free, set me free 'cause I think you need my soul
|---------------------------------------------------------|
|---------------------------------------------------------|
|-7----3----5---------7----3----10-10-10------------------|
|-7----3----5----5----7----3----10-10-10------------------|
|-5----1----3----5----5----1----8--8--8-------------------|
|----------------3----------------------------------------|
So set me free, set me fre_____________________ee
|---------------------------------------------------------|
|-------------------8^10-8-5-8p5--------------------------|
|--------------------------------7-5----------------------|
|-3--2--5--2-3--2--------------------7-5------------------|
|-3--2--5--2-3--2------------------------7-5-3------------|
|-1--0--3--0-1--0------------------------------5----------|
So take me down, take me, down, down, down, down
|---------------------------------------------------------|
|-4-3--7-4--1--1-2------4-3--7-4--1--1-2------------------|
|------------------1-2-------------------1-2--------------|
|---------------------------------------------------------|
|---------------------------------------------------------|
|---------------------------------------------------------|
So take me down, take me, down, down, down, down
|---------------------------------------------------------|
|---------------------------------------------------------|
|-8p7-x-5-5-5-6--------8p7-x-5-5-5-6----------------------|
|---------------5-6-7----------------5-6-7----------------|
|---------------------------------------------------------|
|---------------------------------------------------------|
So take me down, take me, down, down, down, down

                         .-'*'-.SOLO.-'*'-.
|--------------------------------------------------------------------|
|--------------------------------------------------------------------|
|-8p7-5-5-5-x-5-5-5-x-5-------------5-5-5-x-5-5-5-x-5-5-5-x-7^8r-5---|
|-----------------------5h7-7-x-5h7----------------------------------|
|--------------------------------------------------------------------|
|--------------------------------------------------------------------|

|--------------------------------------------------------------------|
|---------------------------8-----7----8----5---16-17-16-17----------|
|-7^8-5-7-5h7--7^8-5-7-5~~--10^12-9^11-8^10-7^9-------------17-------|
|--------------------------------------------------------------19-17-|
|--------------------------------------------------------------------|
|--------------------------------------------------------------------|

|--------------------------------------------------------------------|
|-16-17-16-17--------------17-------17-------------------------------|
|-------------17-----------17-19^21----19-17-19/17-------------------|
|-----------------9-17-19~~------------------------------------------|
|--------------------------------------------------------------------|
|--------------------------------------------------------------------|

|---------------------------------------------17~-20-20^22-22^24~~---|
|-------17-20^22-17-20~-------17-20^22-17-20~------------------------|
|-19^21-----------------19^21----------------------------------------|
|--------------------------------------------------------------------|
|--------------------------------------------------------------------|
|--------------------------------------------------------------------|
                       .-'*'-.END SOLO.-'*'-.

|---------------------------------------------------------|
|-15----15----15----15----15----15----15----15------------|
|-17^19-17^19-17^19-17^19-17^19-17^19-17^19-17^19---------|
|---------------------------------------------------------|
|---------------------------------------------------------|
|---------------------------------------------------------|
So set me free, set me free 'cause I think you need my soul
|-------------------------------------13~~~~~-------------|
|-10----11----13----12----10----11------------------------|
|-12^14-13^15-15^17-14^16-12^14-13^15---------------------|
|---------------------------------------------------------|
|---------------------------------------------------------|
|---------------------------------------------------------|
So set me free, set me fre_____________________ee
|---------------------------------------------------------|
|-15----15----15----15----15----15----15----15------------|
|-17^19-17^19-17^19-17^19-17^19-17^19-17^19-17^19---------|
|---------------------------------------------------------|
|---------------------------------------------------------|
|---------------------------------------------------------|
So set me free, set me free 'cause I think you need my soul
|-------------------------------------13~~~~~-------------|
|-10----11----13----12----10----11------------------------|
|-12^14-13^15-15^17-14^16-12^14-13^15---------------------|
|---------------------------------------------------------|
|---------------------------------------------------------|
|---------------------------------------------------------|
So set me free, set me fre_____________________ee
|---------------------------------------------------------|
|---------------------------------------------------------|
|-------------------3-3-3--------------------3-3-3--------|
|-3-3-3-3-3-3-3-3-3-3-3-3--3-3-3-3-3-3-3-3-3-3-3-3--------|
|-3-3-3-3-3-3-3-3-3-1-1-1--3-3-3-3-3-3-3-3-3-1-1-1--------|
|-1-1-1-0h1-1-1-0h1--------1-1-1-0h1-1-1-0h1--------------|

|---------------------------------------------------------|
|---------------------------------------------------------|
|-------------------3-3-3--------------------3-3-3--------|
|-3-3-3-3-3-3-3-3-3-3-3-3--3-3-3-3-3-3-3-3-3-3-3-3--------|
|-3-3-3-3-3-3-3-3-3-1-1-1--3-3-3-3-3-3-3-3-3-1-1-1--------|
|-1-1-1-0h1-1-1-0h1--------1-1-1-0h1-1-1-0h1--------------|






End on
|---
|-2-
|-2-
|-2-
|-0-
|---

Listen to the recording for all the timing.


Lyrics:
You operate and motivate on synthetic fuel
You're mother nature and an atom bomb
As long as you're kept full of pretty bodies
Your little secret will be safe with me 

Around again
Insane again
It comes again
And sets me free

[Chorus:]
So set me free, set me free
'Cause I think you need my soul
Set me free, set me free

You're kept alive and polarized with one thing in mind
Metabolize everything that you see
But now and then or a little later
Now I'm gonna take you down with me

Around again
Insane again
She comes again
And sets me free

[Chorus x2]
So set me free, set me free
'Cause I think you need my soul
Set me free, set me free

[Bridge x2]
So take me down
Take me, down, down, down, down
Take me down, take me down

[Chorus x4]
So set me free, set me free
'Cause I think you need my soul
Set me free, set me free
Suggest correction
Give kudos to tab author, rate the tab!
1 2 3 4 5
comments
print report bad tab
guest
You may want to rate the tab now too:
select rating
Wanna post a correction for this tab? Suggest correction