Oops, an error
Loading. Please wait.

She Builds Quick Machines Bass Tab

version 1
version 1

Whole song

Interactive

6,646 views 1 this week
4 commentsread comments
1 2 3 4 5
x 5
add to favorites
launch autoscroll
font size
0
reset
guitar tuner
Autoscroll
slow
fast
+/-
esc
set tempo
stop
Help us to improve Ultimate-Guitar.com Take our survey!
×
Difficulty
Tuning
intermediate
D A D G B E
#----------------------------------PLEASE NOTE---------------------------------#
#This file is the author's own work and represents their interpretation of the #
#song. You may only use this file for private study, scholarship, or research. #
#------------------------------------------------------------------------------##

                      SHE BUILDS QUICK MACHINES (Bassline)
                         As recorded by Velvet Revolver
                         (From the 2007 Album LIBERTAD)

Words by Scott Weiland

Music by Velvet Revolver
Transcribed by Mark Dean

Gtr I (D A D G)

 4/4
  Gtr I
  Wx3          H.       E  E
|------------|---------------|
|------------|----------9-10-|
|------------|---------------|
|------------|---------------|


   W           +H.      E  E    H.       Q     E  E  E  E  E  E  E  E
|-----------|----------------|--------------|-------------------------|
|-12--------|-(12)------9-10-|-12-------12--|-12-12-12-12-12-12-12-12-|
|-----------|----------------|--------------|-------------------------|
|-----------|----------------|--------------|-------------------------|


    E E +E  E E +E  E E   E E E E E E Q  12x
||----------------------|-----------------||
||o---------------------|----------------o||
||o-3-5-(5)-3-5-(5)-3-5-|-3-2-3-2--------o||
||----------------------|---------3-5-3---||


  Q.   Q.    Q     +E  E E E E E  Q    Q.   Q.    Q     +E  E E E E E Q
|---------------|--------------------|---------------|---------------------|
|---------------|--------------------|---------------|---------------------|
|---------------|--------------------|---------------|---------------------|
|-7----5----10--|-(10)-3-5-3-5-7-12--|-7----5----10--|-(10)-3-5-3-5-7-3----|


  Q.   Q.    Q     +E  E E E E E  Q    Q.   Q.    Q     +E  E +H.
|---------------|--------------------|---------------|---------------|
|---------------|--------------------|---------------|---------------|
|---------------|--------------------|---------------|---------------|
|-7----5----10--|-(10)-3-5-3-5-7-12--|-7----5----10--|-(10)-0-(0)----|


    E E +E  E E +E  E E   E E E E E E Q  11x
||----------------------|-----------------||
||o---------------------|----------------o||
||o-3-5-(5)-3-5-(5)-3-5-|-3-2-3-2--------o||
||----------------------|---------3-5-3---||


  E E +E  E E +E  E E   E E E E E E E E
|---------------------|-5-4-3-----------|
|---------------------|-------5-4-3-----|
|-3-5-(5)-3-5-(5)-3-5-|-------------5-4-|
|---------------------|-----------------|


  Q.   Q.    Q     +E  E E E E E  Q    Q.   Q.    Q     +E  E E E E E Q
|---------------|--------------------|---------------|---------------------|
|---------------|--------------------|---------------|---------------------|
|---------------|--------------------|---------------|---------------------|
|-7----5----10--|-(10)-3-5-3-5-7-12--|-7----5----10--|-(10)-3-5-3-5-7-3----|


  Q.   Q.    Q     +E  E E E E E  Q    Q.   Q.    Q     +E  E +H.
|---------------|--------------------|---------------|---------------|
|---------------|--------------------|---------------|---------------|
|---------------|--------------------|---------------|---------------|
|-7----5----10--|-(10)-3-5-3-5-7-12--|-7----5----10--|-(10)-0-(0)----|


    E E +E  E E +E  E E   E E E E E E Q   3x
||----------------------|-----------------||
||o---------------------|----------------o||
||o-3-5-(5)-3-5-(5)-3-5-|-3-2-3-2--------o||
||----------------------|---------3-5-3---||


  E E +E  E E +E  E E   E E E E E E +Q
|---------------------|------------------|
|---------------------|------------------|
|-3-5-(5)-3-5-(5)-3-5-|-3-2-3-2----------|
|---------------------|---------3-5-(5)--|


   W           +W            +W            +H     E  E E  E
|-----------|-------------|-------------|-------------------|
|-----------|-------------|-------------|-----------10-9-10-|
|-----------|-------------|-------------|-------------------|
|-12--------|-(12)--------|-(12)--------|-(12)--------------|


     E  E  E  E  E  E  E  E    E  E  E  E  E  E  E  E
||--------------------------|-------------------------|
||o-12-12-12-12-12-12-12-12-|-12-12-12-12-10-12-10-12-|
||o-------------------------|-------------------------|
||--------------------------|-------------------------|


   E  E  E  E  E  E  E  E    E  E  E  E  E  E  E  E   4x
|-------------------------|---------------------------||
|-12-12-12-12-12-12-12-12-|-12-12-12-12S15-15-15-15--o||
|-------------------------|--------------------------o||
|-------------------------|---------------------------||


   E  E  E  E  E  E  E  E    E  E  E  E  E  E  E  E
|-------------------------|-------------------------|
|-------------------------|-------------------------|
|-------------------------|-------------------------|
|-15-15-15-15-15-15-15-15-|-17-17-17-17-17-17-17-17-|


  E E E E E E E E   E E E E E E E E
|-----------------|-----------------|
|-----------------|-----------------|
|-----------------|-----------------|
|-0-0-0-0-0-0-0-0-|-0-0-0-0-0-0-0-0-|


  E E E E E E E E   E E E E E E E E   E E E E E E E E   E E E E E E E E
|-----------------|-----------------|-----------------|-----------------|
|-----------------|-----------------|-----------------|-----------------|
|-----------------|-----------------|-----------------|-----------------|
|-3-3-3-3-3-3-3-3-|-5-5-5-5-5-5-5-5-|-0-0-0-0-0-0-0-0-|-0-0-0-0-0-0-0-0-|


  E E E E E E E E   E E E E E E E E   E E E E E E E E   E E E E E E E E
|-----------------|-----------------|-----------------|-------------------|
|-----------------|-----------------|-----------------|-------------------|
|-----------------|-----------------|-----------------|-------------------|
|-3-3-3-3-3---3-3-|-3-3-3---3-3-3-3-|-5-5-5-5-5---5-5-|-5-5-5---5-5-5-7---|


  E E E E E E E E   E E E E E E E E   E E E E E E E E   E E E E E Q.
|-----------------|-----------------|-----------------|----------------|
|-3-3-3-3-3---3-3-|-3-3-3---3-3-3-3-|-5-5-5-5-5---5-5-|-5-5-5---5------|
|-----------------|-----------------|-----------------|----------------|
|-----------------|-----------------|-----------------|----------------|


    E E E E E E E E   E E E E E E E E
||------------------|------------------||
||o-----------------|-----------------o||
||o-3-5-5-3-5-5-3-5-|-3-2-3-2---------o||
||------------------|---------3-5-3-3--||


  E E E E E E E E   E E E E E E E E   E E E E E E E E   E E E E E E E E
|-----------------|-----------------|-----------------|-------------------|
|-----------------|-----------------|-----------------|-------------------|
|-----------------|-----------------|-----------------|-------------------|
|-3-3-3-3-3---3-3-|-3-3-3---3-3-3-3-|-5-5-5-5-5---5-5-|-5-5-5---5-5-5-7---|


    E E E E E E E E   E E E E E E E E
||------------------|------------------||
||o-----------------|-----------------o||
||o-3-5-5-3-5-5-3-5-|-3-2-3-2---------o||
||------------------|---------3-5-3-3--||


  E E E E E E E E   E E E E E E E E   E E E E E E E E   E E E E E Q.
|-----------------|-----------------|-----------------|----------------|
|-----------------|-----------------|-----------------|----------------|
|-----------------|-----------------|-----------------|----------------|
|-3-3-3-3-3---3-3-|-3-3-3---3-3-3-3-|-5-5-5-5-5---5-5-|-5-5-5---5-5----|


  Q.   Q.    Q     +E  E E E E E  Q    Q.   Q.    Q     +E  E E E E E Q
|---------------|--------------------|---------------|---------------------|
|---------------|--------------------|---------------|---------------------|
|---------------|--------------------|---------------|---------------------|
|-7----5----10--|-(10)-3-5-3-5-7-12--|-7----5----10--|-(10)-3-5-3-5-7-3----|


  Q.   Q.    Q     +E  E E E E E  Q    Q.   Q.    Q     +E  E +H.
|---------------|--------------------|---------------|---------------|
|---------------|--------------------|---------------|---------------|
|---------------|--------------------|---------------|---------------|
|-7----5----10--|-(10)-3-5-3-5-7-12--|-7----5----10--|-(10)-0-(0)----|


    E E +E  E E +E  E E   E E E E E E Q   4x
||----------------------|-----------------||
||o---------------------|----------------o||
||o-3-5-(5)-3-5-(5)-3-5-|-3-2-3-2--------o||
||----------------------|---------3-5-3---||


Duration Legend
---------------
W - whole; H - half; Q - quarter; E - 8th; S - 16th; T - 32nd; X - 64th; a - acciaccatura
+ - note tied to previous; . - note dotted; .. - note double dotted
Uncapitalized letters represent notes that are staccato (1/2 duration)
Irregular groupings are notated above the duration line
Duration letters will always appear directly above the note/fret number it represents the
duration for.  Duration letters with no fret number below them represent rests.  Multi-
bar rests are notated in the form Wxn, where n is the number of bars to rest for.  Low
melody durations appear below the staff

Tablature Legend
----------------
 h   - hammer-on
 p   - pull-off
 b   - bend
 pb  - pre-bend
 r   - bend release (if no number after the r, then release immediately)
 /\  - slide into or out of (from/to "nowhere")
 s   - legato slide
 S   - shift slide
  - natural harmonic
[n]  - artificial harmonic
n(n) - tapped harmonic
 ~   - vibrato
 tr  - trill
 T   - tap
 TP  - trem. picking
 PM  - palm muting
\n/  - tremolo bar dip; n = amount to dip
 \n  - tremolo bar down
 n/  - tremolo bar up
/n\  - tremolo bar inverted dip
 =   - hold bend; also acts as connecting device for hammers/pulls
 <>  - volume swell (louder/softer)
 x   - on rhythm slash represents muted slash
 o   - on rhythm slash represents single note slash

Misc Legend
-----------
 |  - bar
||  - double bar
||o - repeat start
o|| - repeat end
*|  - double bar (ending)
 :  - bar (freetime)
 $  - Segno
 &  - Coda
Tempo markers -  = BPM(8/16=s8/s16), where s8 = swing 8ths, s16 = swing 16ths


***************************************************************************************
* Generated using Power Tab Editor by Brad Larsen - http://powertab.guitarnetwork.org *
***************************************************************************************
Suggest correction
comments
print report bad tab
4 comments total. Showing first comments.
0 reply
sXeDAVI$ 10 Jul 16, 2007 05:42 PM

duff AND slash dont use the A string in the beginning riff...They use the E string...
instead of this:
G|--------------------
D|--------------------
A|-35-35-35-32-32-----
D|---------------5-3-5

they actually play:
G|----------------------------
D|----------------------------
A|----------------------------
D|-10-12-10-12-9-10-9-10-5-3-5

i saw it on a live video.
just helpin out...
other than that, it sounds PERFECT....
good job.

for proof of this, go on youtube & search for Velvet Revolver "She Builds Quick Machines" Jimmy Kimmel

0 reply
homeecheese 20 Jul 17, 2007 04:03 PM

yeah i agree great tab but its the 10 12 thing.

but sxedavis are you sure its not

G|--------------------------------------
D|--------------------------------------
A|--------------------------------------
D|-10-12-0-10-12-0-10-12-9-10-9-10-5-3-5

i guess either ways right doesnt really matter

good tab though

0 reply
slapdashbassist 10 Aug 17, 2007 05:28 AM

I tabbed the verse myself as:
G|-------------------------------------------
D|-------------------------------------------
A|-------------------------------------------
D|-10-12-0-10-12-0-10-12-9-12-0-9-15-12-15-12

Then in the second part of the verse back to:
G|-----------------------------------------
D|-----------------------------------------
A|-----------------------------------------
D|-10-12-0-10-12-0-10-12-9-12-0-9-3-0-3-0--

Listen to the album version, agree?

guest
You may want to rate the tab now too:
select rating
Wanna post a correction for this tab? Suggest correction