Oops, an error
Loading. Please wait.

She Builds Quick Machines Bass Tab

version 2
version 2

Whole song

Interactive

2,249 views 3 this week
no commentswrite comment
1 2 3 4 5
x 3
add to favorites
launch autoscroll
font size
0
reset
guitar tuner
Autoscroll
slow
fast
+/-
esc
set tempo
stop
Help us to improve Ultimate-Guitar.com Take our survey!
×
Author
Difficulty
Tuning
intermediate
D A D G B E
Intro ( Wait For Guitar )
G|------5-||--7777777777777-------5-||--77777777777777-------|
D|-5h7----||------------------5h7---||-----------------------|
A|--------||------------------------||-----------------------|
D|--------||------------------------||--------------------3\-|

Main Riff
G|-------------------------------------------|     
D|-------------------------------------------|     
A|-------------------------------------------|x4  
D|-10-12-0-10-12-0-10-12-9-12-0-9-3-0-3-0----|

Verse
G|------------------------------------|     
D|----------------------------3-0-3-0-|
A|-3-5-0-3-5-0-3-5-2-5-0-2------------|x4   
D|------------------------------------| 

G|------------------------------------|
D|------------------------------------|
A|-3-5-0-3-5-0-3-5-2-5-0-2------------|x4
D|----------------------------3-0-3-0-|

Pre-Chorus
G|------------------------------| G|------------------------------|
D|------------------------------| D|------------------------------|
D|------------------------------| A|------------------------------|
D|-7----5----10----3-5-3-5-7-12-| D|-7----5----10----3-5-3-5-7-3--| 

G|--------------------------------| G|-------------------|    
D|--------------------------------| D|-------------------|    
D|--------------------------------| A|-------------------|    
D|-7----5----10----3-5-3-5-7-12---| D|-7----5----3----5--|   

Chorus
G|----------------------------------------|
D|----------------------------------------|
A|----------------------------------------|x4
D|-10-12-0-10-12-0-10-12-9-12-0-9-3-0-3-0-|

Verse
G|------------------------------------|     
D|----------------------------3-0-3-0-|
A|-3-5-0-3-5-0-3-5-2-5-0-2------------|x4   
D|------------------------------------| 

G|------------------------------------|
D|------------------------------------|
A|-3-5-0-3-5-0-3-5-2-5-0-2------------|x3
D|----------------------------3-0-3-0-|

G|-------------------------|
D|-----------------3-------|
A|-3-5-0-3-5-0-3-5--530----|
D|---------------------530-|

Pre-Chorus
G|--------------------------------| G|-------------------------------|
D|--------------------------------| D|-------------------------------|
D|--------------------------------| A|-------------------------------|
D|-7----5----10----3-5-3-5-7-12---| D|-7----5----10----3-5-3-5-7-3---| 
 
G|-------------------------------| G|------------------|    
D|-------------------------------| D|------------------|    
D|-------------------------------| A|------------------|    
D|-7----5----10----3-5-3-5-7-12--| D|-7----5----3----5-|

Chorus
G|-------------------------------------------|     
D|-------------------------------------------|     
A|-------------------------------------------|x3  
D|-10-12-0-10-12-0-10-12-9-12-0-9-3-0-3-0----|  

G|-------------------------------------------|
D|-------------------------------------------|
A|-------------------------------------------|
D|-10-12-0-10-12-0-10-12-9-12-0-9-03----0----| 

Bridge
G|----------||-------------------------------10-|
D|-10-12-10-||-121212121212121212121212121012---| 
A|----------||----------------------------------| 
D|----------||----------------------------------|

G|------------------------------------|
D|-1212121212121212121212121210-12-10-|
A|------------------------------------|
D|------------------------------------|

G|---------------------------------------||------------------------------------------|
D|-12121212121212121212121212/141414-----||-12121212121212121212121212-10-12-10------|
A|---------------------------------------||------------------------------------------|
D|---------------------------------------||------------------------------------------|

G|-------------------------------10------||---------------------------------------|
D|-121212121212121212121212121012--------||-12121212121212121210121212121210------|
A|---------------------------------------||---------------------------------------|
D|---------------------------------------||---------------------------------------|

G|------------------------------------||------------------------------------------|
D|-121212121212121212121212127h10-----||-1212121212121212121212121210-------------|
A|------------------------------------||------------------------------1210--------|
D|------------------------------------||------------------------------------------|

G|------------------------------||--------------------------------------|
D|------------------------------||-12121212121212121212121212121212-----|
A|-8888888--1010101010101010----||--------------------------------------|
D|------------------------------||--------------------------------------|

G|------------------------------||-----------------------------------------|
D|------------------------------||-/121212-101010--------------------------|
A|-88888888-1010101010101010----||-----------------141414-121212-1010------|
D|------------------------------||------------------------------------22---|

G|------------------------------------------------------------------------------|
D|----------------------------------------33333-33333-3333-55555-55555-5555-----|
A|------------------------------------------------------------------------------|
D|-33333-33333-3333-55555-55555-555/--------------------------------------------|

Solo
G|----------------------------------------------|
D|----------------------------------------------|
A|----------------------------------------------|x2
D|-12-10-12-0-10-12-0-10-12-0-10-12-12-10-9-----| 

G|----------------------------------------|
D|----------------------------------------|
A|----------------------------------------|
D|--33333-33333-3333-55555-55555-5555-----|

G|----------------------------------------------|
D|----------------------------------------------|
A|----------------------------------------------|x2
D|-12-10-12-0-10-12-0-10-12-0-10-12-12-10-9-----| 

G|-----------------------------------------|
D|-----------------------------------------|
A|-----------------------------------------|
D|--33333-33333-3333/-55555-55555--73------|

Pre-Chorus
G|--------------------------------| G|------------------------------|
D|--------------------------------| D|------------------------------|
D|--------------------------------| A|------------------------------|
D|-7----5----10----3-5-3-5-7-12---| D|-7----5----10----3-5-3-5-7----| 
 
G|-------------------------------| G|------------------|    
D|-------------------------------| D|------------------|    
D|-------------------------------| A|------------------|    
D|-7----5----10----3-5-3-5-7-12--| D|-7----5----3----5-|

Chorus
G|-------------------------------------------|
D|-------------------------------------------|
A|-------------------------------------------|x4
D|-10-12-0-10-12-0-10-12-9-12-0-9-3-0-3-0----|

Suggest correction
Give kudos to tab author, rate the tab!
1 2 3 4 5
comments
print report bad tab
guest
You may want to rate the tab now too:
select rating
Wanna post a correction for this tab? Suggest correction