Oops, an error
Loading. Please wait.

She Builds Quick Machines Tab

version 2
version 2

Whole song

Interactive

1,698 views 3 this week
9 commentsread comments
1 2 3 4 5
x 7
add to favorites
launch autoscroll
font size
0
reset
how to read this tab
guitar tuner
Autoscroll
slow
fast
+/-
esc
set tempo
stop
Help us to improve Ultimate-Guitar.com Take our survey!
×
Author
Velvet Revolver - She Builds Quick Machines
from Libertad

as tabbed by axejam123

This is the whole song, and I¡¦ve played it with my band and it sounds fine. This is also 
1st guitar (Slash) only, but the 2nd (Kushner) part should be pretty easy to figure 
And if something¡¦s in here that should be in the Kushner part, watev. It sounds good.

This is also my first tab, even though I¡¦ve been playin for almost 7 years (LOL) so 
a little break, please ļ

***NOTE***
Slash has his own style that cannot be efficiently replicated in a TAB. This is in no 
an exact tablature, but it is a decent guideline for the stuff in the song. Listen to the 
and figure out the exact bends and rhythms that make Slash¡Kwell, Slash.

DADGBE


Intro/Main Riff
[---------------------------------------]
[---------------------------------------]
[---------------------------------------] x4 for intro
[-10-12-0-10-12-0-10-12-9-12--0-3-0-3-0-] x4 for main riff
[-10-12-0-10-12-0-10-12-9-12--0-3-0-3-0-]
[-10-12-0-10-12-0-10-12-9-12--0-3-0-3-0-]


Verse (This includes both left ear and right ear stuff for the sake of sounding good 
playing by your lonely self. In reality, the 1st guitar would play the main riff, base 
only, while the 2nd would do the half notes).
[----------------------------------]
[----------------------------------]
[----------------------------------]
[-----------10--12-----------3--5--] x2 for verse
[-3-5-3-5-3--------3-5-3-5-3-------]
[----------------------------------]


Pre-Chorus (Half-time)
[--------------------------------------------]
[--------------------------------------------]
[--------------------------------------------]
[--------------------------------------------]
[--------------------5---------------------5-]
[-7--5--10-3-5-3-5-3----7--5--10-3-5-3-5-3---]


Chorus
[-------10-------10------------10-------10-----]
[-------10-------10------------10-------10-----]
[---------------------------------------10-----]
[-10-12----10-12----10-12-9-12----10-12--------]
[-10-12----10-12----10-12-9-12----10-12--------]
[-10-12----10-12----10-12-9-12----10-12----3-0-]

Verse


Pre-Chorus


Chorus (Didn¡¦t see that comin, huh?)


Bridge Thing
[-----------------]
[-----------------]
[-----------------]  Basically, when you play this live, just mess
[-----------------]  around with that and it sounds good. It¡¦s a VR
[---10-10-10-12---]  bridge, its not a perfectly set thing
[0--------------0-]  anyways.


2nd Bridge
[-1-1-1---1-1-1---1-1-1---3-3-3---3-3-3---3-3-3-3-]
[-1-1-1---1-1-1---1-1-1---3-3-3---3-3-3---3-3-3-3-]
[-2-2-2---2-2-2---2-2-2---4-4-4---4-4-4---4-4-4-4-]
[-3-3-3---3-3-3---3-3-3---5-5-5---5-5-5---5-5-5-5-] x2
[-3-3-3---3-3-3---3-3-3---5-5-5---5-5-5---5-5-5-5-]
[-------------------------------------------------]


Solo - Slash time!
[-8b8p7---8b8p7---------------------------------------------|
[-------8-------8--8b8p-6--6-8b8p-6--6--8b8p-6--6-8b8p-6--6-|
[------------------------7---------7----------7---------7---|
[-----------------------------------------------------------|
[-----------------------------------------------------------|
[-----------------------------------------------------------|

[-------------8---------8----------------------------------------------|
[8b8p-6--6-8b^-8-6---8b^--8--------------------------------------------|
[------7-----------7--------7-5-7b-7-5---------------------------------|
[--------------------------------------7-5-7---------------------------|
[--------------------------------------------5-7-5-3-5-3---------------|
[--------------------------------------------------------5-3-0-5-3-0-5-|

[-------------------------------------------------------------|
[-------------------------------------------------------------|
[---------------------------------3b--------------------------|
[----------------------------3b-5----5-7-5---5-7-8-10-8-10-12-|
[-------------5b-3-5-3---3-5---------------7------------------|
[-3-0-5-3-5-3----------5--------------------------------------|

[----------------------------------------------13b^-13-10-13-10----|
[-----------------------------------------12b^------------------13-|
[-12b^-10----------10-12b^--12b^-10----10--------------------------|
[-12b^----12-10-12------------------12-----------------------------|
[------------------------------------------------------------------|
[------------------------------------------------------------------|

[--------13-------------------------15b~--15-13----13-15b^-13-------|
[-10-13b^---13-10-------------------------------15------------15~---|
[-----------------12-10---------------------------------------------|
[-----------------------12-10---------------------------------------|
[-----------------------------12~-----------------------------------|
[-------------------------------------------------------------------|


[-17b^~--15-17-17b^-15----15-17b^-----------]
[----------------------17---------17b^~~----]
[-------------------------------------------]
[-------------------------------------------]  *whew*.
[-------------------------------------------]
[-------------------------------------------]


Pre-Chorus

Chorus

END.

Thanks for checkin this out, VR¡¦s my favorite band.
Suggest correction
comments
print report bad tab
9 comments total. Showing first comments.
0 reply
SlashWannabe1 130 Jun 30, 2007 09:29 AM

Solo is a bit wrong along the same lines as my Tab and could use the bridge and pre chorus from my tab to make this one a master tab :D

Pretty good I know you had inspiration :D

0 reply
Pangaea95 10 Jun 30, 2007 04:46 PM

Another good attempt, for some corrections check the comments in version one posted here.

0 reply
79th 32 Jul 03, 2007 04:46 AM

Your solo is a total **** up, so here's the right one:

|-----------------------------------------------------------------------------------|
|-13b15r13-11----11b13r11-------10b11r10-8/7-10b11r10-8/7-10b11r10-8/7-10b11r10-8/7-|
|-------------13----------13-11-----------------------------------------------------|
|-----------------------------------------------------------------------------------|
|-----------------------------------------------------------------------------------|
|-----------------------------------------------------------------------------------|

|--------------------8--------------------------------------------------------------------------|
|-8-10b11r10-8-11b12---10b11r10-8-11b12--13b14r13/11-8-10-11-10-8-7-8-7-5-----------------------|
|-------------------------------------------------------------------------7-8-7-5-4-5-4-2-0-2-0-|
|-----------------------------------------------------------------------------------------------|
|-----------------------------------------------------------------------------------------------|
|-----------------------------------------------------------------------------------------------|

|------------------------------------------------------------------------------------------------------|
|----------------------------------------------------------------------------------------------5-7\8/7-|
|-------0-3b4r3-0-3b4r3-0-3b4r3-0-3b4r3-0-3b4r3-0-3b4-3~-0-3b4-3-2-0-3b4-3-2-0-----5-7/5-5-7\8/7-------|
|-0-2-0------------------------------------------------------------------------------------------------|
|------------------------------------------------------------------------------------------------------|
|------------------------------------------------------------------------------------------------------|

|----------------------------------------------------------------------15b17-14b15-|
|-7-8-10-8~-8-7-5---5~-12-14b16-12-14-15b17-15-14-12-------------------------------|
|-----------------7----------------------------------15-14-12-15-14-12-------------|
|----------------------------------------------------------------------------------|
|----------------------------------------------------------------------------------|
|----------------------------------------------------------------------------------|

|-10-12-13-12-10-12-13-12-------------------------------------17b19~-16\18\16-16-18-16-15-------|
|-------------------------10-12-13-12-10-12-----------------------------------------------16~sd-|
|-------------------------------------------14b15r14-12\14/12-----------------------------------|
|-----------------------------------------------------------------------------------------------|
|-----------------------------------------------------------------------------------------------|
|-----------------------------------------------------------------------------------------------|

|----------19b21~-20-18-17----------------------------------------------|
|--------------------------19----------------20b21~-18\20/18----18b19~--|
|-16\18/16--------------------18\20/18/17-15-----------------19---------|
|-----------------------------------------------------------------------|
|-----------------------------------------------------------------------|
|-----------------------------------------------------------------------|

guest
You may want to rate the tab now too:
select rating
Wanna post a correction for this tab? Suggest correction