Oops, an error
Loading. Please wait.

She Mine Tab

version 3
version 3

Whole song

Interactive

4,825 views 3 this week
12 commentsread comments
1 2 3 4 5
x 6
add to favorites
launch autoscroll
font size
0
reset
how to read this tab
guitar tuner
Autoscroll
slow
fast
+/-
esc
set tempo
stop
Help us to improve Ultimate-Guitar.com Take our survey!
×
Author
-------------------------------------------------------------------------------
                             She Mine - Velvet Revolver
-------------------------------------------------------------------------------
Tabbed by: GNRrocka
Email: GNRrocka@yahoo.com

Tuning: Standard
Drums and base (0:00-23)

Main riff (00:24-00:38) The x's are slash's signature "hiccup" he always plays em in 
places for the most part, but I think it sound best when played like this. The vibratos at 
and are optional, and if done only represent a small pitch change.
e|-----------------------------------------------------------|
B|-----------------------------------------------------------|
G|-----------------------------------------------------------|
D|---5--7-xx5--7---8--7--5-7~-xxxx5--7-xx5--7---8--7--5-7~---|
A|---5--7-xx5--7---8--7--3-7~-xxxx5--7-xx5--7---8--7--5-7~---|
E|---3--5-xx3--5---6--5--3-5~-xxxx3--5-xx3--5---6--5--3-5~---|x2

Verse 1- (0:39-0:53)
e|-----7---5----------------------------|
B|-------------7---8---7---5/7--5h7p5---|
G|---4---4---4---4---4---4--------------|
D|--------------------------------------|
A|--------------------------------------|
E|--------------------------------------|x4

Verse 2- (0:54-1:07)
There's 2 guitars, each plays one of these riffs, so you can play either. I prefer to 
the first one when playing solo though. or the second once then the first.
e|-----------------------------------------------------------------------|
B|-----------------------------------------------------------------------|
G|---5-5-5-5-5-5-5-5--4-4-4-4-4-4-4-4--9-9-9-9-9-9-9-9-9-9-9-9-9-9-9-9---|
D|---5-5-5-5-5-5-5-5--4-4-4-4-4-4-4-4--9-9-9-9-9-9-9-9-9-9-9-9-9-9-9-9---|
A|---3-3-3-3-3-3-3-3--2-2-2-2-2-2-2-2--7-7-7-7-7-7-7-7-7-7-7-7-7-7-7-7---|
E|-----------------------------------------------------------------------|x2
or
e|-----------------------------------------------------------------------|
B|-----------------------------------------------------------------------|
G|---5-5-5-5-5-5-5-5--4-4-4-4-4-4-4-4------------------------------------|
D|---5-5-5-5-5-5-5-5--4-4-4-4-4-4-4-4--2-2-2-2-2-2-2-2-2-2-2-2-2-2-2-2---|
A|---3-3-3-3-3-3-3-3--2-2-2-2-2-2-2-2--2-2-2-2-2-2-2-2-2-2-2-2-2-2-2-2---|
E|-------------------------------------0-0-0-0-0-0-0-0-0-0-0-0-0-0-0-0---|x2

Chorus- (1:08-1:22)
e|-----------------------------------------------------------|
B|-----------------------------------------------------------|
G|-----------------------------------------------------------|
D|---5--7-xx5--7---8--7--5-7~-xxxx5--7-xx5--7---8--7--5-7~---|
A|---5--7-xx5--7---8--7--3-7~-xxxx5--7-xx5--7---8--7--5-7~---|
E|---3--5-xx3--5---6--5--3-5~-xxxx3--5-xx3--5---6--5--3-5~---|x2

Lick 1- (1:23-1:29)
e|----------------------------|
B|----------------------------|
G|---2/4~--2/4~--5--4--2-4~---|
D|----------------------------|
A|----------------------------|
E|----------------------------|x2

Verse 1 again- (1:30-1:43)
e|-----7---5----------------------------|
B|-------------7---8---7---5/7--5h7p5---|
G|---4---4---4---4---4---4--------------|
D|--------------------------------------|
A|--------------------------------------|
E|--------------------------------------|x4

Verse 2 again- (1:44-1:57)
e|-----------------------------------------------------------------------|
B|-----------------------------------------------------------------------|
G|---5-5-5-5-5-5-5-5--4-4-4-4-4-4-4-4--9-9-9-9-9-9-9-9-9-9-9-9-9-9-9-9---|
D|---5-5-5-5-5-5-5-5--4-4-4-4-4-4-4-4--9-9-9-9-9-9-9-9-9-9-9-9-9-9-9-9---|
A|---3-3-3-3-3-3-3-3--2-2-2-2-2-2-2-2--7-7-7-7-7-7-7-7-7-7-7-7-7-7-7-7---|
E|-----------------------------------------------------------------------|x2
or
e|-----------------------------------------------------------------------|
B|-----------------------------------------------------------------------|
G|---5-5-5-5-5-5-5-5--4-4-4-4-4-4-4-4------------------------------------|
D|---5-5-5-5-5-5-5-5--4-4-4-4-4-4-4-4--2-2-2-2-2-2-2-2-2-2-2-2-2-2-2-2---|
A|---3-3-3-3-3-3-3-3--2-2-2-2-2-2-2-2--2-2-2-2-2-2-2-2-2-2-2-2-2-2-2-2---|
E|-------------------------------------0-0-0-0-0-0-0-0-0-0-0-0-0-0-0-0---|x2

Chorus again- (1:58-2:12)
e|-----------------------------------------------------------|
B|-----------------------------------------------------------|
G|-----------------------------------------------------------|
D|---5--7-xx5--7---8--7--5-7~-xxxx5--7-xx5--7---8--7--5-7~---|
A|---5--7-xx5--7---8--7--3-7~-xxxx5--7-xx5--7---8--7--5-7~---|
E|---3--5-xx3--5---6--5--3-5~-xxxx3--5-xx3--5---6--5--3-5~---|x2

Verse 3- (2:13-2:38)
e|-----------------------------------------------------------------------|
B|-----------------------------------------------------------------------|
G|---5-5-5-5-5-5-5-5--7-7-7-7-7-7-7-7------------------------------------|
D|---5-5-5-5-5-5-5-5--7-7-7-7-7-7-7-7--3-3-3-3-3-3-3-3-3-3-3-3-3-3-3-3---|
A|---3-3-3-3-3-3-3-3--5-5-5-5-5-5-5-5--3-3-3-3-3-3-3-3-3-3-3-3-3-3-3-3---|
E|-------------------------------------1-1-1-1-1-1-1-1-1-1-1-1-1-1-1-1---|x3

e|--------------------------------------|
B|--------------------------------------|
G|---5-5-5-5-5-5-5-5--7-7-7-7-7-7-7-7---|
D|---5-5-5-5-5-5-5-5--7-7-7-7-7-7-7-7---|
A|---3-3-3-3-3-3-3-3--5-5-5-5-5-5-5-5---|
E|--------------------------------------|

Solo- (2:39-2:52)
The solo seems to be pentonic scale at the 7th fret, but its all.. wierd and set low on 
mix, so for the purposes of this tab, we'll just play this. You can add your own solo 
instead if u want.
(Palm mute all notes)
PM | -  -   -  -   -  -  - -
e|------------------------------|
B|------------------------------|
G|------------------------------|
D|------------------------------|
A|------------------------------|
E|---3--5---3--5---6--5--3-5~---|x4

Chorus one last time- (2:53-end)
e|-----------------------------------------------------------|
B|-----------------------------------------------------------|
G|-----------------------------------------------------------|
D|---5--7-xx5--7---8--7--5-7~-xxxx5--7-xx5--7---8--7--5-7~---|
A|---5--7-xx5--7---8--7--3-7~-xxxx5--7-xx5--7---8--7--5-7~---|
E|---3--5-xx3--5---6--5--3-5~-xxxx3--5-xx3--5---6--5--3-5~---|x4


Notes: Again, the vibrato in the chorus is optional and if done should one be slight, 
makes it sound a lot better.

| /  slide up
| \  slide down
| h  hammer-on
| p  pull-off
| ~  vibrato
| +  harmonic
| x  Mute note
===============================================================================
Suggest correction
comments
print report bad tab
12 comments total. Showing first comments.
0 reply
canadian-vr-fan 52 Sep 03, 2007 09:01 PM

great job on the tab!

0 reply
guitar_gringo_ 10 Sep 05, 2007 07:40 PM

check out guitar_gringo........theres this song he put on there that is unbelievable..one song to end all!

0 reply
Halenrockr 65 Sep 08, 2007 07:52 AM

nice tab man

guest
You may want to rate the tab now too:
select rating
Wanna post a correction for this tab? Suggest correction