Oops, an error
Loading. Please wait.

Slither Bass Tab

version 1
version 1
77,364 views 114 this week
28 commentsread comments
1 2 3 4 5
x 51
add to favorites
launch autoscroll
font size
0
reset
guitar tuner
Autoscroll
slow
fast
+/-
esc
set tempo
stop
Help us to improve Ultimate-Guitar.com Take our survey!
×
Author
Drop D tuning


[Intro Part 1]

G|-----------------|-----------------|
D|o----------------|----------------o|
A|o--------8-8-8---|---------8-8-8-8o|
D|-0-0-0-0-------0-|-0-0-0-0---------| (x7)
                                                       
[Intro Part 2]

G|-----------------|-----------------|
D|-----------------|-----------------|
A|---------8-8-8---|-----------------|
D|-0-0-0-0-------0-|-----------------|

[Main Riff]

G|-----------------|-----------------| 
D|o----------------|----------------o|
A|o----------------|----------------o|
D|-0-3-4-0-6-7-0-10|-0-6-7-0-5-0-3-4-|(x4)

[1st Verse]

G|-----------------|-----------------| 
D|o----------------|----------------o|
A|o----------------|----------------o|
D|-0-3-4-0-6-7-0-10|-0-6-7-0-5-0-3-4-|(x8)

[Chorus]

G|-----------------|-----------------|-----------------|-----------------|
D|-----------------|-----------------|-----------------|-----------------|
A|-----------------|---------------0-|-3-----3-----3-3-|---333-3-3-5-3-0-|
D|-0-----0-----0-0-|---0-0-----0-0---|-----------------|-----------------|

G|-----------------|-----------------|-----------------|-----------------|
D|-----------------|-----------------|-----------------|-----------------|
A|-2-----2-----2-2-|---2-2-223-3-3-3-|-----------------|-------------0---|
D|-----------------|-----------------|-0-----0-----0-0-|---0-0---0-0-----|

[Main Riff]

G|-----------------|-----------------| 
D|o----------------|----------------o|
A|o----------------|----------------o|
D|-0-3-4-0-6-7-0-10|-0-6-7-0-5-0-3-4-|

[2nd Verse]

G|-----------------|-----------------| 
D|o----------------|----------------o|
A|o----------------|----------------o|
D|-0-3-4-0-6-7-0-10|-0-6-7-0-5-0-3-4-|(x8)

[Chorus]

G|-----------------|-----------------|-----------------|-----------------|
D|o----------------|-----------------|-----------------|-----------------|
A|o----------------|---------------0-|-3-----3-----3-3-|---333-3-3-5-3-0-|
D|-0-----0-----0-0-|---0-0-----0-0---|-----------------|-----------------|

G|-----------------|-----------------|-----------------|-----------------|
D|-----------------|-----------------|-----------------|----------------o|
A|-2-----2-----2-2-|---2-2-223-3-3-3-|-----------------|-------------0--o|
D|-----------------|-----------------|-0-----0-----0-0-|---0-0---0-0-----|

G|-----------------|-----------------|
D|o----------------|----------------o|
A|o--------8-8-8---|---------8-8-8-8o|
D|-0-0-0-0-------0-|-0-0-0-0---------| (x3)
                                                     
G|-----------------|-----------------|
D|-----------------|-----------------|
A|---------8-8-8---|-----------------|
D|-0-0-0-0-------0-|-----------------|

[Solo]

G|-----------------|-----------------|-----------------|-----------------|
D|-----------------|-----------------|-----------------|-----------------|
A|-5-5-5---5-5-5-5-|---5-5---5-5-0-2-|-3---3---3-3-3-3-|---3-3---3-5-3-0-|
D|-----------------|-----------------|-----------------|-----------------|

G|-----------------|-----------------|-----------------|-----------------|
D|-----------------|-----------------|-----------------|-----------------|
A|-2-2-2---2-2-2-2-|-2-2---2-3-3-333-|-----------------|---5-3-0-5-3-2---|
D|-----------------|-----------------|-0-0-0---0-0-0---|-----------------|

G|-----------------|-----------------|-----------------|-----------------|
D|-----------------|-----------------|-----------------|-------023-2-0---|
A|-----------------|---------------2-|-3---3-3---3-3---|-3-3-3---------3-|
D|-0---0-0---0-0-0-|---0-0-0---0-0---|-----------------|-----------------|

G|-----------------|-----------------|-----------------|-----------------|
D|-----------------|-----------------|-----------------|-----------------|
A|-2---2---2-2-2-2-|---2-2---3-3-333-|-5---5---5-5-----|---8-8---10101212|
D|-----------------|-----------------|-------------0-0-|-0---------------|

[Verse 3]

G|-----------------|-----------------| 
D|o----------------|----------------o|
A|o----------------|----------------o|
D|-0-3-4-0-6-7-0-10|-0-6-7-0-5-0-3-4-|(x3)

G|--------------------|-----------------|
D|--------------------|-----------------|
A|--------------------|-----------------|
D|-0-10-12-0-9-10-0-7-|-0-6-7-0-5-0-3-4-|

[Chorus]

G|-----------------|-----------------|-----------------|-----------------|
D|o----------------|-----------------|-----------------|-----------------|
A|o----------------|---------------0-|-3-----3-----3-3-|---333-3-3-5-3-0-|
D|-0-----0-----0-0-|---0-0-----0-0---|-----------------|-----------------|

G|-----------------|-----------------|-----------------|-----------------|
D|-----------------|-----------------|-----------------|----------------o|
A|-2-----2-----2-2-|---2-2-223-3-3-3-|-----------------|-------------0--o|
D|-----------------|-----------------|-0-----0-----0-0-|---0-0---0-0-----|

[Outro]

G|-----------------|-----------------| 
D|o----------------|----------------o|
A|o----------------|----------------o|
D|-0-3-4-0-6-7-0-10|-0-6-7-0-5-0-3-4-|(x3)

G|--------------------|-----------------|-----------------|
D|--------------------|-----------------|-----------------|
A|--------------------|-----------------|-----------------|
D|-0-10-12-0-9-10-0-7-|-0-6-7-0-5-0-3-4-|-0---------------|


Order

Intro part 1 x 7
Intro part 2
Main Riff
1st Verse
Chorus
Main Riff       
2nd Verse
Chorus x 2 
Intro part 1 x 3
Intro part 2
Solo
3rd Verse
Chorus x 2
Outro


************************************

| o reprise

************************************
Suggest correction
comments
print report bad tab
28 comments total. Showing first comments. show 2 bad comments
+4 reply
TenTonHammer 210 Jun 04, 2004 12:00 AM

Sounds good to me

guest
You may want to rate the tab now too:
select rating
Wanna post a correction for this tab? Suggest correction