Oops, an error
Loading. Please wait.

Slither Bass Tab

version 4
version 4
13,044 views 33 this week
9 commentsread comments
1 2 3 4 5
x 17
add to favorites
launch autoscroll
font size
0
reset
guitar tuner
Autoscroll
slow
fast
+/-
esc
set tempo
stop
Help us to improve Ultimate-Guitar.com Take our survey!
×
Author
Slither - Velvet Revolver
Tabbed by: RaisinBren
E-mail: brendenpayne@gmail.com
Tuning: Drop D (DADG)

I decided to learn this song a couple months ago, and so I looked up tabs and taught 
myself them, but then earlier today I was watching a video of Duff playing this song and noticed 
that how I had learned it was WAAAYYY off. So, I looked up another set of tabs. And another. And 
another. They were ALL wrong. So, I decided to do it myself, so I'd have something to learn from. 
Here it is. 100% how Duff McKagen plays it.

[Intro]
G|-------------------------------------------------------------------------|
D|-------------------------------------------------------------------------|
A|----------8-8-8----------8-8-8-10----------8-8-8-------------8-8-8-10----|
D|--0--0-0-------0-0-0-0-0---------0-0-0-0---------0-0-0-0-0---------------|

G|---------------------------------------------------------------------------|  x2
D|---------------------------------------------------------------------------|
A|-----------8-8-8------------8-8-8-10----------8-8-8------------8-8-8-10----|
D|--0-0-0-0--------0-0-0-0-0----------0-0-0-0--------0-0-0-0-0---------------|

G|-------------------------------------------------------------------------|
D|-------------------------------------------------------------------------|
A|-----------8-8-8------------8-8-8-10----------8-8-8----------------------|
D|--0-0-0-0--------0-0-0-0-0-----------0-0-0-0--------0--------------------|

G|---------------------------------------|  x3
D|---------------------------------------|
A|---------------------------------------|
D|--0-3-4-0-6-7-0-10~0-6-7-0-5-0-3-4-----|

G|---------------------------------------|
D|---------------------------------------|
A|---------------------------------------|
D|--0-3-4-0-6-7-0-10~0-6-7-0-5-0-3~------|

[Verse]
G|---------------------------------------|  x3
D|---------------------------------------|
A|---------------------------------------|
D|--0-3-4-0-6-7-0-10~0-6-7-0-5-0-3-4-----|

G|---------------------------------------|
D|---------------------------------------|
A|---------------------------------------|
D|--0-3-4-0-6-7-0-10~0-6-7-0-5-0-3~------|

G|---------------------------------------|  x3
D|---------------------------------------|
A|---------------------------------------|
D|--0-3-4-0-6-7-0-10~0-6-7-0-5-0-3-4-----|

G|---------------------------------------|
D|---------------------------------------|
A|---------------------------------------|
D|--0-3-4-0-6-7-0-10~0-6-7-0-5-0-3~------|

[Chorus]
G|------------------------------------------------------------------------------------------------|
D|------------------------------------------------------------------------------------------------|
A|-----5----------5-0-2-3---3---3--3-0-X-3-5-3-0-2---2--2--2-0-X-3--3-X------5-----5-3-0-3-2-0----|
D|--0-----0--0-0----------------------------------------------------------0-----0-----------------|

[Post-Chorus]
G|---------------------------------------|  x3
D|---------------------------------------|
A|---------------------------------------|
D|--0-3-4-0-6-7-0-10~0-6-7-0-5-0-3-4-----|

G|---------------------------------------|
D|---------------------------------------|
A|---------------------------------------|
D|--0-3-4-0-6-7-0-10~0-6-7-0-5-0-3~------|

[Verse]
G|---------------------------------------|  x3
D|---------------------------------------|
A|---------------------------------------|
D|--0-3-4-0-6-7-0-10~0-6-7-0-5-0-3-4-----|

G|---------------------------------------|
D|---------------------------------------|
A|---------------------------------8-----|
D|--0-3-4-0-6-7-0-10~0-6-7-0-5-0---------|

G|---------------------------------------|  x3
D|---------------------------------------|
A|---------------------------------------|
D|--0-3-4-0-6-7-0-10~0-6-7-0-5-0-3-4-----|

G|--------------------------------------------|
D|--------------------------------------------|
A|--------------------------------------------|
D|--0-3-4-0-6-7-0-10-12-0-10-12-0-10-12-12----|

[Chorus]
G|------------------------------------------------------------------------------------------------|
D|------------------------------------------------------------------------------------------------|
A|-----5----------5-0-2-3---3---3--3-0-X-3-5-3-0-2---2--2--2-0-X-3--3-X------5-----5-3-0-3-2-0----|
D|--0-----0--0-0----------------------------------------------------------0-----0-----------------|

G|---------------------------------------------------------------------------------------------|
D|---------------------------------------------------------------------------------------------|
A|-----5----------5-0-2-3---3---3--0-3-5---5-4-3-2---2--2--2-0-X-3--3-X------5------------8----|
D|--0-----0--0-0--------------------------3-------------------------------0-----0--0-0-0-------|

[Bridge]
G|-----------------------------------------------------------------------------|
D|-----------------------------------------------------------------------------|
A|-------------8-8------------8-8-8-10----------8-8-8------------8-8-8-10------|
D|--0--------------0-0-0-0-0-----------0-0-0-0--------0-0-0-0-0----------------|

G|--------------------------------------------------------|
D|--------------------------------------------------------|
A|-----------8-8-8------------8-8-8-10---------8-8-8------|
D|--0-0-0-0--------0-0-0-0-0-----------0-0-0-0-------0----|

[Guitar Solo]
G|------------------------------------------------------------------------|
D|------------------------------------------------------------------------|
A|-----5------5------5-------0-2-3--3--3-3--3--3-3--3-3--0-X-3-5-3-0-2----|
D|--0-----0-0---0--0----0-0-----------------------------------------------|

G|--------------------------------------------------------------|
D|--------------------------------------------------------------|
A|--2--2-2-0-2--2--2-0-X-3--3-3-3-----5------5---5-3-0-3-2-0----|
D|----------------------------------0-----0-0---0---------------|

G|--------------------------------------------------------------------------|
D|-------------------------------------------------------------3------------|
A|-----5-------5-------5--------0-2-3--3--3-3--0-3--3-3-0-3-5---5-4--3-2----|
D|--0-----0--0---0--0-----0--0----------------------------------------------|

G|-----------------------------------------------------------------------------------|
D|-----------------------------------------------------------------------------------|
A|--2--2-2-0-2--2-2-2-0-3-3-3--3--5-5--5-5-5-5-5--5-5-5-5-5-5--X-8-8-8-8-10-10-10----|
D|-----------------------------------------------------------------------------------|

[Bridge 2]
G|--------------------------------------|  x3
D|--------------------------------------|
A|--------------------------------------|
D|--0-3-4-0-6-7-0-10~0-6-7-0-5-0-3-4----|

G|----------------------------------------|
D|----------------------------------------|
A|----------------------------------------|
D|--0-10-12-0-9-10-0-7-0-6-7-0-5-0-3-4----|

[Verse]
G|---------------------------------------------------------------------------------------------------|
D|---------------------------------------------------------------------------------------------------|
A|-----5----------5-0-2-3---3---3--3-0-3-5-3---2---2--2--2-0-X-3--3-X------5------------3-2-0--------|
D|--0-----0--0-0--------------------------------------------------------0-----0--0-0-0----------0----|

G|-----------------------------------------------------------------------------------------------------|
D|-----------------------------------------------------------------------------------------------------|
A|--5---------5--0-2-3---3--3--0-3h5---5-4-3-2--2--2--2-2--2-3--3-3-5-5-5-5-5-5-5-5-5-8-8-8-8-10-10----|
D|----0--0-0--------------------------3----------------------------------------------------------------|

[Outro]
G|--------------------------------------|  x3
D|--------------------------------------|
A|--------------------------------------|
D|--0-3-4-0-6-7-0-10~0-6-7-0-5-0-3-4----|

G|------------------------------------------|
D|------------------------------------------|
A|------------------------------------------|
D|--0-10-12-0-9-10-0-7-0-6-7-0-5-0-3-4-0----|

************************************

| ~  Vibrato
| h  Hammer-on
| X  Dead note

************************************
Suggest correction
comments
print report bad tab
9 comments total. Showing first comments.
0 reply
libave 10 Mar 09, 2013 07:25 PM

excellent! thanks for sharing

0 reply
gauthpunk78 10 May 06, 2013 02:28 PM

i finally find it , you're the best man , thanks ! =)

0 reply
MrCash247 103 Oct 08, 2013 09:34 PM

spot on, after years and years, finally a correct tab

guest
You may want to rate the tab now too:
select rating
Wanna post a correction for this tab? Suggest correction