Oops, an error
Loading. Please wait.

Sucker Train Blues Bass Tab

version 1
version 1

Whole song

Interactive

1,704 views 3 this week
2 commentsread comments
1 2 3 4 5
please rate
add to favorites
launch autoscroll
font size
0
reset
guitar tuner
Autoscroll
slow
fast
+/-
esc
set tempo
stop
Help us to improve Ultimate-Guitar.com Take our survey!
×
Author
  
  Sucker Train Blues by Velvet Revolver
  Tuning is Standard


  Intro
  |-------------¦-----------------¦¦
  |-------------¦-------------5---¦¦
  |-7-7-7-7-5-7-¦-7-7-7-7-5-7---7-¦¦
  |-------------¦-----------------¦¦

  |-------------¦-----------------¦¦
  |-------------¦-----------------¦¦
  |-7-7-7-7-5-7-¦-7-7-7-7-7-0-5-7-¦¦  x4
  |-------------¦-----------------¦¦

 
  |-----------------------------------------|
  |-----------------------------------------|
  |-----------------------------------------|
  |-0-5-3-0-3-3-3-3-3-3-3-3-3-3-3-3-3-3-3-3-|
  
  |---------------------------------|
  |---------------------------------|
  |---------------------------------|  x2
  |-0-0-0-0-0-0-0-0-0-0-0-0-0-0-0-0-|


  Verse
  |-------------¦-----------------¦¦
  |-------------¦-------------5---¦¦
  |-7-7-7-7-5-7-¦-7-7-7-7-5-7---7-¦¦
  |-------------¦-----------------¦¦

  |-------------¦-----------------¦¦
  |-------------¦-----------------¦¦
  |-7-7-7-7-5-7-¦-7-7-7-7-7-0-5-7-¦¦  x4
  |-------------¦-----------------¦¦


  Pre-Chorus
  |----------------------------------------------------|
  |----------------------------------------------------|
  |---------------------------2--2-2-2-2-2-2-2-2-2-2-2-| x2
  |-5--5-5-5-5-5-3--3-3-3-3-3--------------------------|
 
  
  Chorus
  |-----------------------------------|
  |-----------------------------------|
  |-----------------------------------|
  |-0-3-3-3-3-3-3-3-3-3-3-3-3-3-3-3-3-|
  
  |---------------------------------|
  |---------------------------------|
  |---------------------------------|  x4
  |-0-0-0-0-0-0-0-0-0-0-0-0-0-0-0-0-|


  Back to verse
  
  Back to Pre Chorus 
  
  Then Chorus

  Bridge
  |-------------------------------------------------|
  |-------------------------------------------------|
  |-5-5-5-5-5-5-3-3-3-3-3-3-------------------------| x3
  |-------------------------0-0-0-0-0-0-0-0-0-0-0-0-|

  |-------------------------------------------------|
  |-------------------------------------------------|
  |-5-5-5-5-5-5-3-3-3-3-3-3-0-2-2-2-2-2-2-2-2-2-2-2-|
  |-------------------------------------------------|


  During Solo
  |---------------------------------|
  |---------------------------------|
  |---------------------------------|  
  |-0-0-0-0-0-0-0-0-0-0-0-0-0-0-0-0-|

  |---------------------------------|
  |---------------------------------|
  |---------------------------------| x3
  |-3-3-3-3-3-3-3-3-3-3-3-3-3-3-3-3-|
   
  |-----------------------------------------------------|
  |-----------------------------------------------------|
  |-----------------------------------------------------|
  |-5-5-5-5-5-5-3-3-3-3-3-3-7-7-7-7-7-7-7-7-7-7-7-7~~-8/|


  For rest of song
  |-----------------------------------|
  |-----------------------------------|
  |-----------------------------------|
  |-3-3-3-3-3-3-3-3-3-3-3-3-3-3-3-3-5-|
  
  |---------------------------------|
  |---------------------------------|
  |---------------------------------|  x6
  |-0-0-0-0-0-0-0-0-0-0-0-0-0-0-0-0-|

  |-----------|
  |-----------|
  |-----------|
  |-0-----0~~-|
 
Suggest correction
Give kudos to tab author, rate the tab!
1 2 3 4 5
comments
print report bad tab
2 comments total.
+2 reply
BucketheadRules 279 wrote on December 8 2007, 04:23 pm

[sigh]... there's already a good tab for this, and the intro is an octave up from what you have it.

+1 reply
Martin259 200 wrote on February 6 2008, 02:47 pm

The intro Is played an Octave Higher.

G||----------------------|---------------------------------|
D||------------------14--|-----14--14--14--13--14--14--14--|
A||----------------------|---------------------------------|
E||----------------------|---------------------------------|

--------------------------12------|---------------------------------|
--14--14--14--14--13--14------14--|--L--14--14--14--13--14--14--14--|
----------------------------------|---------------------------------|
----------------------------------|---------------------------------|

-------------------------------------|
--14--14--14--14--14---------12--14--|
----------------------12h-14---------|
-------------------------------------|

At the end of the Intro:

-----------------------------|
--14--14--14--0--5--4--0-----|
-----------------------------|
--------------------------3--!

guest
You may want to rate the tab now too:
select rating
Please do not post tabs as comments. Select "correction" instead!