Oops, an error
Loading. Please wait.

The Last Fight intro tab

version 1
version 1

Intro

Whole song

8,085 views 6 this week
6 commentsread comments
1 2 3 4 5
x 6
add to favorites
×
Save as Personal and add changes to this tab that will be seen only by you. Learn more ›
×
You can save this tab as Personal to edit and correct it or add notes. All changes will be seen only by you. Learn more »
launch autoscroll
font size
0
reset
how to read this tab
guitar tuner
edit
Autoscroll
slow
fast
+/-
esc
set tempo
stop
Author
Difficulty
All little correction because of a single false note ^^ I'm working on the entire tab.
I'm not sure about the tuning down thing, but I'm referring to the Guns n Roses tuning.

Tune down 1/2 step


       H        E   S  S  S  S  S  S     E   E   E   S   S  E   E   E   E      E   E   E   E   E   E   E   E
D#||------------------11-13-11-------|----------13-----------------13--11--|----------11------13------11-----|
A#||---------------11----------11----|--10--13------10h-13-----10----------|------13-------------------------|
F#||---------------------------------|---------------------10--------------|--13----------13------13------13-|
C#||--13--------L-----------------13-|-------------------------------------|---------------------------------|
G#||---------------------------------|-------------------------------------|---------------------------------|
D#||---------------------------------|-------------------------------------|---------------------------------|


   ^     ^       ^   ^   ^      ^  
   Q     Q.      E   E   E      H        E   S  S  S  S  S  S     E   E   E   S   S  E   E   E   E
--15----15------15--14--13--|--11--------L-----11-13-11-------|----------13-----------------13--11--|
--16----16------16--15--14--|--11--------L--11----------11----|--10--13------10h-13-----10----------|
----------------------------|---------------------------------|---------------------10--------------|
----------------------------|------------------------------13-|-------------------------------------|
----------------------------|---------------------------------|-------------------------------------|
----------------------------|---------------------------------|-------------------------------------|


   E   E   E   E   E   E   E   E      Q     H.
----------11------13------11------|--15----15------------|
------13--------------------------|--16----16------------|
--13----------13------13------13--|----------------------|
----------------------------------|----------------------|
----------------------------------|----------------------|
----------------------------------|----------------------|



Duration Legend
---------------
W - whole
H - half
Q - quarter
E - 8th
S - 16th
. - note dotted


Tablature Legend
----------------
L - tied note
h - hammer on

            
            
Suggest correction
Creating personal tab
Creating personal tab
You can edit any tab online and save it as your Personal.

You can edit, replace or remove any tab part or add personal notes – all changes will be seen only by you.

Personal tabs can be accessed anytime from any device, even offline.
Learn more »
comments
print report bad tab
6 comments total. Showing first comments.
0 reply
clement1 61 Jul 04, 2007 02:38 AM

This intro is spot on, would like to see the rest of the tab though.

0 reply
Topstring 20 Jul 04, 2007 02:42 AM

Good tab, but is detuning at all necessary, seeing how there are no open notes?

0 reply
XVentura 95 Jul 05, 2007 05:27 AM

Fantastic.

Tuning isn't necessary if you only want to play one VR/Gn'R song but it's just natural to tune down if you're looking to play quite a few songs. Great tab man.

guest
You may want to rate the tab now too:
select rating
Wanna post a correction for this tab? Suggest correction